Linkin Park - Numb Chords & Tabs

 

Numb Chords & Tabs

Linkin Park Chords & Tabs

Version: 5 Type: Tab 0 ratings
1 star 2 stars 3 stars 4 stars 5 stars
comments

Numb Tab

   
Artist: Linkin Park
Song: Numb
Album: Meteora
Tabbed By: Ian Hernandez(now u know its good) email me at
dragonsoldier2002@yahoo.com for questions or comments

Tuning from low to high: Db Ab Db Gb Bb Eb


Intro 0:03 - keyboard effects arranged for guitar(slightly distorted)

----13----15--18--17------13----18--17--13------13----15--18--17--13------13---
-15----15--------------15----15--------------15----15------------------15----15
-------------------------------------------------------------------------------
-------------------------------------------------------------------------------
-------------------------------------------------------------------------------
-------------------------------------------------------------------------------

                            Verse 1 - 0:21 "Tired of being what you..."
-18--17--13------13----15-+-------------------------------------------------+
--------------15----15----+-------------------------------------------------+
--------------------------+-------------------------------------------------+
--------------------------+-------------------------------------------------+
--------------------------+-------------------------------------------------+
--------------------------+-------------------------------------------------+

Prechorus - 0:39 "Caught in the undertow, just caught in the undertow"

harmonic********************************************************************
-----------------------------------------------------------------------------
-----------------------------------------------------------------------------
----12----7------12----7------12----7------12----7------12----7------12----7-
-12----12-----12----12-----12----12-----12----12-----12----12-----12----12---
-----------------------------------------------------------------------------
-----------------------------------------------------------------------------


Chorus - 0:51 "I've become so numb, I can't feel you there...."

let notes ring through
--------------------------------------------------------------
--------------------------------------------------------------
-------------------------------------------------------------- Repeat once 
-5--------------1--------------8--------------3---------------     more
-5--------------1--------------8--------------3---------------
-5--------------1--------------8--------------3---------------


Verse 2 - 1:09 "Can't you see you're smothering me...."

harmonic*********************************************************************
-----------------------------------------------------------------------------
-----------------------------------------------------------------------------
----12----7------12----7------12----7------12----7------12----7------12----7-
-12----12-----12----12-----12----12-----12----12-----12----12-----12----12---
-----------------------------------------------------------------------------
-----------------------------------------------------------------------------

                           2nd Prechorus - 1:27 "Caught in the undertow...."
[ Tab from: http://www.guitartabs.cc/tabs/l/linkin_park/numb_tab_ver_5.html ]
harmonic*********************************************************************
-----------------------------------------------------------------------------
-----------------------------------------------------------------------------
----12----7------12----7------12----7------12----7------12----7------12----7-
-12----12-----12----12-----12----12-----12----12-----12----12-----12----12---
-----------------------------------------------------------------------------
-----------------------------------------------------------------------------

                                                        
harmonic********************************************* 
-----------------------------------------------------+
-----------------------------------------------------+
----12----7------12----7------12----7------12----7---+
-12----12-----12----12-----12----12-----12----12-----+
-----------------------------------------------------+
-----------------------------------------------------+



Chorus - 1:44 "I've become so numb, I can't feel you there..."
------------------------------------------------------------
------------------------------------------------------------
------------------------------------------------------------   Repeat once
-5-------------1--------------8--------------3-------------- more, then go to
-5-------------1--------------8--------------3--------------     Bridge
-5-------------1--------------8--------------3--------------


Bridge - 2:02 "And I know, I may end up failing too..."
-------------------------------------------------------------------------------
-------------------------------------------------------------------------------
-------------------------------------------------------------------------------
-1-------------3--------------5----7----8----0----1-------------3--------------
-1-------------3--------------5----7----8----0----1-------------3--------------
-1-------------3--------------5----7----8----0----1-------------3--------------

                                              
----------------------------------------------
----------------------------------------------
----------------------------------------------
-0-------------0---------------0--------------
-0-------------0---------------0--------------
-0-------------0---------------0--------------


Chorus - 2:21 "I've become so numb, I can't feel you there"
-------------------------------------------------------------
-------------------------------------------------------------
------------------------------------------------------------- play three more 
-5--------------1--------------8---------------3-------------      times
-5--------------1--------------8---------------3-------------
-5--------------1--------------8---------------3-------------


Outro
Guitar 2 starts this part during the final chorus at 2:38 and ends the song
----13----15--18--17------13----18--17--13------13----15--18--17
-15----15--------------15----15--------------15----15-----------
----------------------------------------------------------------
----------------------------------------------------------------
----------------------------------------------------------------
----------------------------------------------------------------


----13----18--17--13------13----15--18--17------13----18--17--13
-15----15--------------15----15--------------15----15-----------
----------------------------------------------------------------
----------------------------------------------------------------
----------------------------------------------------------------
----------------------------------------------------------------

Well Thats IT!!!!! way to go and keep up the practice y'all.
hope you enjoyed!!!!!!  IAN HERNANDEZ
Comments