Linkin Park - Numb Chords & Tabs

 

Numb Chords & Tabs

Linkin Park Chords & Tabs

Version: 10 Type: Tab 0 ratings
1 star 2 stars 3 stars 4 stars 5 stars
comments

Numb Tab

Band - Linkin Park
Song - Numb

Tuning: Standard

G|---------|---------|---------|-----|
D|---------|---------|---------|-----|
A|---------|---------|---------|-----|
E|---------|---------|---------|-----|


G|---------|---------|-------------------|-------------------|
D|---------|---------|-4-4-(4)-4-(4)--4--|-------------------|
A|---------|---------|-------------------|-5-5-(5)-5-(5)--5--|
E|---------|---------|-------------------|-------------------|


G|-------------------|-------------------|
D|-7-7-(7)-7-(7)--7--|-------------------|
A|-------------------|-7-7-(7)-7-(7)--7--|
E|-------------------|-------------------|


G|-------------------|-------------------------|
D|-------------------|-------------------------|
A|-9-9-(9)-9-(9)--9--|-------------------------|
E|-------------------|-10-10-(10)-10-(10)--10--|


G|-------------------------|-------------------------|
D|-------------------------|-------------------------|
A|-12-12-(12)-12-(12)--12--|-------------------------|
E|-------------------------|-12-12-(12)-12-(12)--12--|
 
 
G|-------------------------|-------------------|
D|-------------------------|-0-0-(0)-0-(0)--0--|
A|-------------------------|-------------------|
E|-14-14-(14)-14-(14)--14--|-------------------|
 
 
G|-------------------------|-------------------------|
D|-------------------------|-------------------------|
A|-12-12-(12)-12-(12)--12--|-------------------------|
E|-------------------------|-12-12-(12)-12-(12)--12--|
 
 
G|----------------------|-----------------|
D|----------------------|--------------6--|
A|-------------------9--|-7-7-7-7-(7)-----|
E|-10-10-10-10-(10)-----|-----------------|


G|-----------------|-----------------|-----------------|-----------------|
D|-4-4-4-4-(4)--6--|-7-7-7-7---------|--------------4--|-2-2-2-2-(2)--2--|
A|-----------------|---------7-7-7-7-|-5-5-5-5-(5)-----|-----------------|
E|-----------------|-----------------|-----------------|-----------------|
 
 
G|-------------------|-------------------|
D|-4-4-(4)-4-(4)--4--|-------------------|
A|-------------------|-5-5-(5)-5-(5)--5--|
E|-------------------|-------------------|
 
 
G|-------------------|-------------------|
D|-7-7-(7)-7-(7)--7--|-------------------|
A|-------------------|-7-7-(7)-7-(7)--7--|
E|-------------------|-------------------|
 
 
G|-------------------|-------------------------|
D|-------------------|-------------------------|
A|-9-9-(9)-9-(9)--9--|-------------------------|
E|-------------------|-10-10-(10)-10-(10)--10--|


G|-------------------------|-------------------------|
D|-------------------------|-------------------------|
A|-12-12-(12)-12-(12)--12--|-------------------------|
E|-------------------------|-12-12-(12)-12-(12)--12--|
 
 
G|-------------------------|-------------------|
D|-------------------------|-0-0-(0)-0-(0)--0--|
A|-------------------------|-------------------|
E|-14-14-(14)-14-(14)--14--|-------------------|
 
 
G|-------------------------|-------------------------|
D|-------------------------|-------------------------|
A|-12-12-(12)-12-(12)--12--|-------------------------|
E|-------------------------|-12-12-(12)-12-(12)--12--|
 
 
G|-------------------------|-------------------|
D|-------------------------|-0-0-(0)-0-(0)--0--|
A|-------------------------|-------------------|
E|-14-14-(14)-14-(14)--14--|-------------------|

[ Tab from: http://www.guitartabs.cc/tabs/l/linkin_park/numb_tab_ver_10.html ]
G|-------------------------|-------------------------|
D|-------------------------|-------------------------|
A|-12-12-(12)-12-(12)--12--|-------------------------|
E|-------------------------|-12-12-(12)-12-(12)--12--|
 
 
G|----------------------|-----------------|-----------------|-----------------|
D|----------------------|--------------6--|-4-4-4-4-(4)--6--|-7-7-7-7---------|
A|-------------------9--|-7-7-7-7-(7)-----|-----------------|---------7-7-7-7-|
E|-10-10-10-10-(10)-----|-----------------|-----------------|-----------------|
 
 
G|-----------------|-----------------|-----------------|-----------------|
D|--------------4--|-2-2-2-2-(2)--4--|-4-4-4-4-(4)--6--|-7-7-7-7-6-6-6-6-|
A|-5-5-5-5-(5)-----|-----------------|-----------------|-----------------|
E|-----------------|-----------------|-----------------|-----------------|
 
 
G|-------------------|-------------------|
D|-4-4-(4)-4-(4)--4--|-------------------|
A|-------------------|-5-5-(5)-5-(5)--5--|
E|-------------------|-------------------|


G|-------------------|-------------------|
D|-7-7-(7)-7-(7)--7--|-------------------|
A|-------------------|-7-7-(7)-7-(7)--7--|
E|-------------------|-------------------|
 
 
G|-------------------|-------------------------|
D|-------------------|-------------------------|
A|-9-9-(9)-9-(9)--9--|-------------------------|
E|-------------------|-10-10-(10)-10-(10)--10--|
 
 
G|-------------------------|-------------------------|
D|-------------------------|-------------------------|
A|-12-12-(12)-12-(12)--12--|-------------------------|
E|-------------------------|-12-12-(12)-12-(12)--12--|
 
 
G|----------------------|-----------------|-----------|-----------|
D|----------------------|--------------6--|-4----6----|-7---------|
A|-------------------9--|-7-7-7-7-(7)-----|-----------|------7----|
E|-10-10-10-10-(10)-----|-----------------|-----------|-----------|


G|-----------------|--------------1--|-----------------|-----------------|
D|--------------4--|-2-2-2-2-(2)-----|-----------------|-----------------|
A|-5-5-5-5-(5)-----|-----------------|-4-4-4-4-(4)--4--|-4-4-4-4-(4)--4--|
E|-----------------|-----------------|-----------------|-----------------|
 
 
G|-----------------|-------------------|-------------------|-------------------|
D|-----------------|-4-4-(4)-4-(4)--4--|-------------------|-7-7-(7)-7-(7)--7--|
A|-4-4-4-4-(4)--4--|-------------------|-5-5-(5)-5-(5)--5--|-------------------|
E|-----------------|-------------------|-------------------|-------------------|
 
 
G|-------------------|-------------------|
D|-------------------|-------------------|
A|-7-7-(7)-7-(7)--7--|-9-9-(9)-9-(9)--9--|
E|-------------------|-------------------|
 
 
G|-------------------------|-------------------------|
D|-------------------------|-------------------------|
A|-------------------------|-12-12-(12)-12-(12)--12--|
E|-10-10-(10)-10-(10)--10--|-------------------------|


G|-------------------------|-------------------------|
D|-------------------------|-------------------------|
A|-------------------------|-------------------------|
E|-12-12-(12)-12-(12)--12--|-14-14-(14)-14-(14)--14--|
 
 
G|-------------------|-------------------------|
D|-0-0-(0)-0-(0)--0--|-------------------------|
A|-------------------|-12-12-(12)-12-(12)--12--|
E|-------------------|-------------------------|
 
 
G|-------------------------|-------------------------|
D|-------------------------|-------------------------|
A|-------------------------|-------------------------|
E|-12-12-(12)-12-(12)--12--|-14-14-(14)-14-(14)--14--|
 
 
G|-------------------|-------------------------|
D|-0-0-(0)-0-(0)--0--|-------------------------|
A|-------------------|-12-12-(12)-12-(12)--12--|
E|-------------------|-------------------------|


G|---------------------------*|
D|---------------------------*|
A|---------------------------*|
E|-12-12-(12)-12-(12)--12----*|
Comments