Linkin Park - Numb Chords & Tabs

 

Numb Chords & Tabs

Linkin Park Chords & Tabs

Version: 1 Type: Tab 2 ratings
1 star 2 stars 3 stars 4 stars 5 stars
comments

Numb Tab

   
Artist: Linkin Park
Title: Numb
Album: Meteora
Transcribed by: Beaver


Tuning: Dropped-C#
C# G# C# F# A# D# 

  [Chorus 00:12 - 00:20]
-|------------|-
-|------------|-
-|------------|-
-|-5--1--8--3-|-
-|-5--1--8--3-|-
-|-5--1--8--3-|-
  Play once
  Distortion


  [Verse 00:38 - 00:51] Caught in the undertow...
-|---10---|-
-|-8----8-|-
-|--------|-
-|--------|-
-|--------|-
-|--------|-
  Play 6 times
  Clean tone


  [Chorus 00:51 - 01:08] I've become so numb...
-|------------|-
-|------------|-
-|------------|-
-|-5--1--8--3-|-
-|-5--1--8--3-|-
-|-5--1--8--3-|-
  Play twice
  Distortion

[ Tab from: http://www.guitartabs.cc/tabs/l/linkin_park/numb_tab.html ]
  [Verse 01:08 - 01:43] Can't you see...
-|---10---|-
-|-8----8-|-
-|--------|-
-|--------|-
-|--------|-
-|--------|-
  Play 16 times
  Clean tone


  [Chorus 01:43 - 02:01] I've become so numb...
-|------------|-
-|------------|-
-|------------|-
-|-5--1--8--3-|-
-|-5--1--8--3-|-
-|-5--1--8--3-|-
  Play twice
  Distortion


  [Bridge 02:01 - 02:21] And I know...
-|---------------------------------------|-
-|---------------------------------------|-
-|---------------------------------------|-
-|-1---3---5--7--8--0--1---3---0---0---0-|-
-|-1---3---5--7--8--0--1---3---0---0---0-|-
-|-1---3---5--7--8--0--1---3---0---0---0-|-
   Play once


  [Chorus 02:21 - 02:55] I've become so numb...
-|------------|-
-|------------|-
-|------------|-
-|-5--1--8--3-|-
-|-5--1--8--3-|-
-|-5--1--8--3-|-
  Play 4 times


END [3:07]


Comments