Linkin Park - Numb Correct Chords & Tabs

 

Numb Correct Chords & Tabs

Linkin Park Chords & Tabs

Version: 1 Type: Tab 3 ratings
1 star 2 stars 3 stars 4 stars 5 stars
comments

Numb Correct Tab

   
Artist: Linkin Park
Album: Meteora
Song: Numb
 
Transcribed by Richard A. January 14th 2004.

Tuning: DADGBE

Intro
E--9-12-9--14-17-16---9--12--9--17--16----
B--------------------------------------------17-
G-----------------------------------------------
D-----------------------------------------------
A-----------------------------------------------
D-----------------------------------------------

Verses(play this twice)

E-9-9-9-5-5-5-9-9-9-7-7-7
B-7-7-7-3-3-3-7-7-7-5-5-5	
G-----------------------------
D-----------------------------
A-----------------------------
D-----------------------------

 Chorus

F#m	D	A	E
[ Tab from: http://www.guitartabs.cc/tabs/l/linkin_park/numb_correct_tab.html ]
E-x--------x----------	x----------	x
B-x--------x----------	x----------	x
G-x--------x----------	x----------	x
D-4--------0----------	7----------	2
A-4--------0----------	7----------	2
D-4--------0----------	7----------	2

Bridge

   D	E	F#m	G#	A	D	E	C#

E-x-------	x----------	x----------	x----------	x----------	x----------	x----------	x
B-x-------	x----------	x----------	x----------	x----------	x----------	x----------	x
G-x-------	x----------	x----------	x----------	x----------	x----------	x----------	6
D-0-------	2----------	4----------	6----------	7----------	0----------	2----------	6
A-0-------	2----------	4----------	6----------	7----------	0----------	2----------	4	
D-0-------	2----------	4----------	6----------	7----------	0----------	2----------	x

(Outro is the same as Intro).

Thats it. Easy song to play but sounds good with lots of distortion.

Any questions or comments, email me
at : the_vandals_4@hotmail.com

Thanks, this was my first tab.
Comments