Linkin Park - Numb Chords & Tabs

 

Numb Chords & Tabs

Linkin Park Chords & Tabs

Version: 2 Type: Bass Tab 0 ratings
1 star 2 stars 3 stars 4 stars 5 stars
comments

Numb Bass Tab

  [LINKIN PARK] - Numb
  Bass Tab
  Written by Phoenix
  Tabbed by darce - sumbody_else@hotmail.com
  Standard Tuning

  Chorus/Verse
  
  G--------------------------
  D--------------------------
  A----------------3---------   x3
  E----5-----1----------3----
 
  play that heavy with brads guitar then in the verse with mikes piano,
then for the last time round in the verse play...

  Verse part 2

  G-----------------------------------
  D-----------------------------------
  A------3-----3--1---3--5------3-----   x1
  E---3----5-----------------3----5---
[ Tab from: http://www.guitartabs.cc/tabs/l/linkin_park/numb_btab_ver_2.html ]
  That part may not sound right by itself but with the music it falls into place
  
  Chorus/Verse
  
  G--------------------------
  D--------------------------
  A----------------3---------   x4
  E----5-----1----------3----
 
  
  Verse part 2

  G-------------------------------------------------
  D-------------------------------------------------
  A------3-----3--1---3--5------3-----3--1---3--5---   x1
  E---3----5-----------------3----5-----------------


  Chorus
  
  G--------------------------
  D--------------------------
  A----------------3---------   x2
  E----5-----1----------3----
 

  Bridge

  G-------------------------------------
  D-------------------------------------
  A-------------------------------------  x1
  E--1--3--5--7--8--0--1----3--1--1--1--
 
  Chorus
  
  G--------------------------
  D--------------------------
  A----------------3---------   x4
  E----5-----1----------3----
 
  Cheers,
Comments