Linkin Park - Numb Chords & Tabs

 

Numb Chords & Tabs

Linkin Park Chords & Tabs

Version: 1 Type: Bass Tab 13 ratings
1 star 2 stars 3 stars 4 stars 5 stars
comments

Numb Bass Tab

   
Linkin Park - Numb
Taken out of Guitar World Magazine March 2004 Issue
4 string bass version

Drop D tuning - tune your strings to these notes

G = Gb(half step down)
D = Db(half step down)
A = Ab(half step down)
E = Db(One and half step down)

Tempo: 110 Sig: 4/4



Intro

|---------------|---------------|---------------|---------------|
|---------------|---------------|---------------|------------7--|
|---------------|---------------|-1-------------|---------------|
|-5---------5-5\|-1-------------|---------------|-3-------------|

Play the part above once when guitar and other instrument come in

Verse

|---------------|---------------|---------------|---------------|
|-5-------------|---------------|-8-------------|---------------|
|---------------|-6-------------|---------------|-8-------------| 2x
|---------------|---------------|---------------|---------------|

Pre-chorus

|---------------|---------------|---------------|---------------|---------------|---------------|
|------------5--|------------7--|-5----------7--|-8-------------|------------5--|---------------|
|-6-------------|-8-------------|---------------|--------5------|-6-------------|-8-------------|
|---------------|---------------|---------------|---------------|---------------|---------------|

Chorus

|---------------|---------------|---------------|---------------|
|---------------|---------------|---------------|---------------|
|---------------|---------------|-1-------------|---------------|
|-5-------------|-1-------------|---------------|-3----------0--|

|---------------|---------------|---------------|---------------|
|---------------|---------------|---------------|------------7--|
|---------------|---------------|-1-------------|---------------|
|-5-------------|-1-------------|---------------|-3-------------|
[ Tab from: http://www.guitartabs.cc/tabs/l/linkin_park/numb_btab.html ]
After chorus, play the verse part. when playing the pre chorus after the second verse, play only the first 4 measures twice

Bridge

|---------------|---------------|---------------|---------------|
|---------------|---------------|---------------|---------------|
|---------------|---------------|--------0------|-1-------------|
|-1-------------|-3-------------|-5-------------|--------0------|

|---------------|---------------|---------------|---------------|---------------|
|---------------|---------------|---------------|---------------|---------------|
|---------------|---------------|---------------|---------------|---------------|
|-1-------------|-3-------------|-0-------------|0------------3/|-12--10-10--12\|

3rd Chorus

|---------------|---------------|---------------|---------------|
|---------------|---------------|---------------|---------------|
|---------------|---------------|-1----------1--|---------------|
|-5-------------|-1-------------|---------------|-3----------0--|

|---------------|---------------|---------------|---------------|
|---------------|---------------|-------------3-|---------------|
|---------------|---------------|-1---------1---|-3-----------3-|
|-5-------------|-1-------------|---------------|-------3-3-----|

Ending

|---------------|---------------|---------------|---------------|
|---------------|---------------|---------------|---------------|
|---------------|---------------|-1-------------|---------------|
|-5-------------|-1-------------|---------------|-3----------3--|

|---------------|---------------|---------------|---------------|
|---------------|---------------|---------------|---------------|
|---------------|---------------|-1-------------|---------------|
|-5-------------|-1-------------|---------------|-3-----3-3-3-3-|

Any questions, email me at jp16_03@msn.com, or go by the copy of guitar world March 2004 issue

djratz6
Comments