Linkin Park - Nobodys Listening Chords & Tabs

 

Nobodys Listening Chords & Tabs

Linkin Park Chords & Tabs

Version: 1 Type: Tab 0 ratings
1 star 2 stars 3 stars 4 stars 5 stars
comments

Nobodys Listening Tab

-------------------------------------------------------------------
		  Linkin Park - Nobody's Listening
			   Album: Meteora
		Tabbed by DTMax - dtmax_@hotmail.com
-------------------------------------------------------------------

	This is played during the chorus and only the chorus.
There is no other guitar in this song but it still sounds great.
The whole song is palm muted.
[ Tab from: http://www.guitartabs.cc/tabs/l/linkin_park/nobodys_listening_tab.html ]
e|---------|----------|
B|---------|----------|
G|---------|----------|
D|-33--3-3-|-55---5-5-|
A|-33--3-3-|-55---5-5-|
E|-33--3-3-|-55---5-5-|

e|---------|--------|
B|---------|--------|
G|---------|--------|
D|-33--3-3-|-00--11-|
A|-33--3-3-|-00--11-|
E|-33--3-3-|-00--11-|

e|---------|---------|
B|---------|---------|
G|---------|---------|
D|-33--3-3-|-22--2-2-|
A|-33--3-3-|-22--2-2-|
E|-33--3-3-|-22--2-2-|

e|---------|--------|
B|---------|--------|
G|---------|--------|
D|-33--3-3-|-00--11-|
A|-33--3-3-|-00--11-|
E|-33--3-3-|-00--11-|

Thats all. Have Fun.
Comments