Linkin Park - My December Chords & Tabs

 

My December Chords & Tabs

Linkin Park Chords & Tabs

Version: 5 Type: Tab 0 ratings
1 star 2 stars 3 stars 4 stars 5 stars
comments

My December Tab

My December Tab by Linkin Park, www.Ultimate-Guitar.Com
Tabbed by noodlez


Main Riff
E-----------------------------------------------------|
A-----------------------------------------------------|
D-----------------------------------------------------| (Play throughout song)
G-----0-3-2-3--0-3-2-3------3-2-3----3-2-3------------|
B-------------------------3--------3------------------|
E-----------------------------------------------------|

E-----------------------------------------------------|
A---------------13------------------------------------|
D-----10-10-10----------10-10-10--12------------------|
G-----------------------------------------------------|
B-----------------------------------------------------|
E-----------------------------------------------------|

E-----------------------------------------------------|
A-----------------------------------------------------|
D-----------------------------------------------------|
G-----10-10-10-7---------10-10-10-7----12-10----------|
B----------------10-----------------10-------10-------|
E-----------------------------------------------------|

Lyrics:
[ Tab from: http://www.guitartabs.cc/tabs/l/linkin_park/my_december_tab_ver_5.html ]
This is my December
This is my time of the year
This is my December
This is all so clear
This is my December
This is my snow covered home
This is my December
This is me alone
And I
Just wish that I didn't feel like there was something I missed
And I
Take back all the things I said to make you feel like that
And I
Just wish that I didn't feel like there was something I missed
And I
Take back all the things that I said to you
And I give it all away
Just to have somewhere to go to
Give it all away
To have someone to come home to
This is my December
These are my snow covered dreams
This is me pretending
This is all I need
And I
Just wish that I didn't feel like there was something I missed
And I
Take back all the things I said to make you feel like that
And I
Just wish that I didn't feel like there was something I missed
And I
Take back all the things that I said to you
And I give it all away
Just to have somewhere to go to
Give it all away
To have someone to come home to
This is my December
This is my time of the year
This is my December
This is all so clear
Give it all away
Just to have somewhere to go to
Give it all away
To have someone to come home to
Give it all away
Just to have somewhere to go to
Give it all away
To have someone to come home to
Comments