Linkin Park - My December Chords & Tabs

 

My December Chords & Tabs

Linkin Park Chords & Tabs

Version: 4 Type: Tab 0 ratings
1 star 2 stars 3 stars 4 stars 5 stars
comments

My December Tab

#----------------------------------PLEASE NOTE--------------------------------#
#This file is the author's own work and represents their interpretation of the#
#song. You may only use this file for private study, scholarship, or research.#
#-----------------------------------------------------------------------------#
#-- File created with Instab - http://www.pconline.com/~smcarey/instab.html --#
#-----------------------------------------------------------------------------#

Author/Artist: linkin park
Title: my december
Transcribed by: paul 
Email: aint_life_a_bitc_h@hotmail.com

this is the piano and guitar parts for the song
 (converted to standard tuning)
[ Tab from: http://www.guitartabs.cc/tabs/l/linkin_park/my_december_tab_ver_4.html ]
-|----------------------------------|-----------------------------|----------
-|----------------------------------|-----------------------------|----------
-|----------------------------------|-----------------------------|----------
-|----------------------------------|---------10------------------|----------
-|----8-7-8----8-7-8---8-7-8---8-7-8|-8----8-------8---8---10-----|----------
-|-10-------10-------8-------8------|-----------------------------|----------
     piano                                  guitar+++++++(look below)

-|-------------------------------------|-------------------------------------
-|-------------------------------------|-------------------------------------
-|-------------------------------------|-------------------------------------
-|-10-10-10-7----10-10-10-7----12-10---|-------------------------------------
-|------------10------------10-------10|-------------------------------------
-|-------------------------------------|-------------------------------------
               piano chorus

+++++++ the guitar parts are all artificial harmonics 
(fret the note then place your finger above the fret thats 12 above the note)
then pluck and it will harmonic eg 8=20
Comments