Linkin Park - My December Chords & Tabs

 

My December Chords & Tabs

Linkin Park Chords & Tabs

Version: 2 Type: Tab 0 ratings
1 star 2 stars 3 stars 4 stars 5 stars
comments

My December Tab

   
Artist: Linkin Park
Song: My December
Written by: Brad Delson
Tabbed by: Drew Montgomery
Tuning: Drop-D and 1/2 step down(Db-Ab-Db-Gb-Bb-Eb)
Key: * = harmonic and b = bend

There is very little guitar at all in this song, but
I've tabbed out the piano for guitar too, though it
sounds a lot better on bass. God bless and rock on!!!

Piano Intro/Verse(clean)

Eb|-------------------------------------------------|
Bb|-------------------------------------------------|
Gb|-------------------------------------------------|
Db|----3-2-3---3-2-3---3-2-3---3-2-3----------------|
Ab|--5-------5-------3-------3----------------------|
Db|-------------------------------------------------|
[ Tab from: http://www.guitartabs.cc/tabs/l/linkin_park/my_december_tab_ver_2.html ]
Guitar Intro/Pre-Chorus(clean with delay)

Eb|-------------------------------------------------|
Bb|-------------------------------------------------|
Gb|--12*---12*----7*------12*---12*-----------------|
Db|------------------------------------7*-----------|
Ab|-------------------------------------------------|
Db|-------------------------------------------------|

Piano Chorus(clean)

Eb|-------------------------------------------------|
Bb|-------------------------------------------------|
Gb|--7-7--5--3--------7-7--8--------9b--7-----------|
Db|-------------5-------------9--7---------7--------|
Ab|-------------------------------------------------|
Db|-------------------------------------------------|

And that's all there is to this song. Bye-bye.
Comments