Linkin Park - Lying From You Chords & Tabs

 

Lying From You Chords & Tabs

Linkin Park Chords & Tabs

Version: 7 Type: Tab 0 ratings
1 star 2 stars 3 stars 4 stars 5 stars
comments

Lying From You Tab

   
Artist: Linkin Park
Song: Lying From You
Album: Meteora
Tabbed By: The Riff
Tuning: Drop D and a half a step down


Intro:
eb|----------------------------------|---------------------------|
Bb|----------------------------------|---------------------------|
Gb|----------------------------------|---------------------------|
Db|-X-X-X-X---0-2-1--0--3-2-1/6--(x3)|--O-2-1--0--3-2-1--X-X-X-X-| (X1)
Ab|-X-X-X-X---0-2-1--0--3-2-1/6------|--O-2-1--0--3-2-1--X-X-X-X-|
Db|-X-X-X-X---0-2-1--0--3-2-1/6------|--O-2-1--0--3-2-1--X-X-X-X-|



Verse 1:
eb|-----------|-----------|---------------|-----------------------------|
Bb|-----------|-----------|---------------|-----------------------------|
Gb|-----------|-----------|---------------|-----------------------------|
Db|----2-2----|----5-5----|--0-0-0-0--(x3)|--2-2----5-5-5-5-----7-7-7-7-| (x1)
Ab|----2-2----|----5-5----|--0-0-0-0------|--2-2----5-5-5-5-----7-7-7-7-|
Db|----2-2----|----5-5----|--0-0-0-0------|--2-2----5-5-5-5-----7-7-7-7-|


Chorus:
eb|-----------------------------------------------------|------|
Bb|-----------------------------------------------------|      |
Gb|-----------11-11-11-/-7-7-7-/-9-9-9------------------|      |
Db|---2--2----11-11-11-/-7-7-7-/-9-9-9---5-5----0-0-0-0-|      |
Ab|---2--2-----9--9--9-/-5-5-5-/-7-7-7---5-5----0-0-0-0-|      |
Db|---2--2-------------------------------5-5----0-0-0-0-|      |
                                                              (x2)
eb|-----------------------------------------------------|      |
Bb|-----------------------------------------------------|      |
Gb|-----------11-11-11-/-7-7-7-/-9-9-9------------------|      |
Db|---2--2----11-11-11-/-7-7-7-/-9-9-9---7-7----0-0-0-0-|      |
Ab|---2--2-----9--9--9-/-5-5-5-/-7-7-7---7-7----0-0-0-0-|      |
Db|---2--2-------------------------------7-7----0-0-0-0-|------|



Verse 2:
eb|-----------|-----------|---------------|-----------------------------|
Bb|-----------|-----------|---------------|-----------------------------|
Gb|-----------|-----------|---------------|-----------------------------|
Db|----2-2----|----5-5----|--0-0-0-0--(x3)|--2-2----5-5-5-5-----7-7-7-7-| (x1)
Ab|----2-2----|----5-5----|--0-0-0-0------|--2-2----5-5-5-5-----7-7-7-7-|
Db|----2-2----|----5-5----|--0-0-0-0------|--2-2----5-5-5-5-----7-7-7-7-|


[ Tab from: http://www.guitartabs.cc/tabs/l/linkin_park/lying_from_you_tab_ver_7.html ]
Chorus:
eb|-----------------------------------------------------|------|
Bb|-----------------------------------------------------|      |
Gb|-----------11-11-11-/-7-7-7-/-9-9-9------------------|      |
Db|---2--2----11-11-11-/-7-7-7-/-9-9-9---5-5----0-0-0-0-|      |
Ab|---2--2-----9--9--9-/-5-5-5-/-7-7-7---5-5----0-0-0-0-|      |
Db|---2--2-------------------------------5-5----0-0-0-0-|      |
                                                              (x2)
eb|-----------------------------------------------------|      |
Bb|-----------------------------------------------------|      |
Gb|-----------11-11-11-/-7-7-7-/-9-9-9------------------|      |
Db|---2--2----11-11-11-/-7-7-7-/-9-9-9---7-7----0-0-0-0-|      |
Ab|---2--2-----9--9--9-/-5-5-5-/-7-7-7---7-7----0-0-0-0-|      |
Db|---2--2-------------------------------7-7----0-0-0-0-|------|



Fill before Bridge:
eb|-----------------------------------|
Bb|-----------------------------------|
Gb|-----------------------------------|
Db|-5-5-5-5-5-5-5-5-5-5-5-5-5-5-5-5-5-| 
Ab|-5-5-5-5-5-5-5-5-5-5-5-5-5-5-5-5-5-|
Db|-5-5-5-5-5-5-5-5-5-5-5-5-5-5-5-5-5-|



Bridge:
eb|--------------------------|
Bb|--------------------------|
Gb|--------------------------|
Db|---0-2-1--0--3-2-1/6------| (x8)
Ab|---0-2-1--0--3-2-1/6------|
Db|---0-2-1--0--3-2-1/6------|



Chorus:
eb|-----------------------------------------------------|------|
Bb|-----------------------------------------------------|      |
Gb|-----------11-11-11-/-7-7-7-/-9-9-9------------------|      |
Db|---2--2----11-11-11-/-7-7-7-/-9-9-9---5-5----0-0-0-0-|      |
Ab|---2--2-----9--9--9-/-5-5-5-/-7-7-7---5-5----0-0-0-0-|      |
Db|---2--2-------------------------------5-5----0-0-0-0-|      |
                                                              (x2)
eb|-----------------------------------------------------|      |
Bb|-----------------------------------------------------|      |
Gb|-----------11-11-11-/-7-7-7-/-9-9-9------------------|      |
Db|---2--2----11-11-11-/-7-7-7-/-9-9-9---7-7----0-0-0-0-|      |
Ab|---2--2-----9--9--9-/-5-5-5-/-7-7-7---7-7----0-0-0-0-|      |
Db|---2--2-------------------------------7-7----0-0-0-0-|------|



Outro:
eb|------------------------------------|
Bb|------------------------------------|
Gb|------------------------------------|
Db|-5-5-5-5-5-5-5-5-5-5-5-5-5-5-7-7-7--|
Ab|-5-5-5-5-5-5-5-5-5-5-5-5-5-5-7-7-7--|
Db|-5-5-5-5-5-5-5-5-5-5-5-5-5-5-7-7-7--|
Comments