Linkin Park - Lying From You Chords & Tabs

 

Lying From You Chords & Tabs

Linkin Park Chords & Tabs

Version: 2 Type: Tab 1 rating
1 star 2 stars 3 stars 4 stars 5 stars
comments

Lying From You Tab

   
Artist: Linkin Park
Title: Lying From You
Album: Meteora
Transcribed by: Beaver

Tuning: Dropped-C#
C# G# C# F# A# D# 

  [Intro 00:11 - 00:21]					
-|---------|-		-|----------------------------|-
-|---------|-		-|----------------------------|-
-|---------|-		-|----------------------------|-
-|-1-1-1-1-|-		-|-0-2-2-1--0--3--2--1--0-6-6-|-
-|-1-1-1-1-|-		-|-0-2-2-1--0--3--2--1--0-6-6-|-
-|-1-1-1-1-|-		-|-0-2-2-1--0--3--2--1--0-6-6-|-
   PM.....		  Play three times
  Play once


  [Intro Con't 00:21 - 00:24] When I pretend...	
-|----------------------------|-
-|----------------------------|-
-|----------------------------|-
-|-0-2-2-1--0--3--2--1--1-1-1-|-
-|-0-2-2-1--0--3--2--1--1-1-1-|-
-|-0-2-2-1--0--3--2--1--1-1-1-|-
  Play once		PM...


  [Verse 00:24 - 00:41]	Everything is what I want it to be...
-|---------------------------|-
-|---------------------------|-
-|---------7--7--------------|-
-|-2--2----7--7----0-0--0--0-|-
-|-2--2----5--5----0-0--0--0-|-
-|-2--2----5--5----0-0--0--0-|-
  Play three times


  [Verse Con't 00:41 - 00:48] I can't pretend I'm who you want me to be...
-|-----------------------------------|-
-|-----------------------------------|-
-|---------7--7--7--7-7--------------|-
-|-2--2----7--7--7--7-7--7-7--7--7-7-|-
-|-2--2----5--5--5--5-5--7-7--7--7-7-|-
-|-2--2----5--5--5--5-5--7-7--7--7-7-|-
  Play once


  [Chorus 00:48 - 00:54]  You...
-|------------------------------------------------------------|-
-|------------------------------------------------------------|-
-|--------11-11-11-11\7-7-7-7/9-9--7--7--7-7--7---------------|-
-|-2--2---x--x--x--x-\x-x-x-x/x-x--7--7--7-7--7--0-0--0--0--0-|-
-|-2--2---9--9--9--9-\5-5-5-5/7-7--5--5--5-5--5--0-0--0--0--0-|-
-|-2--2----------------------------5--5--5-5--5--0-0--0--0--0-|-
  Play once


  [Chorus Con't 00:54 - 01:00]  Go...
-|------------------------------------------------------------|-
-|------------------------------------------------------------|-
-|--------11-11-11-11\7-7-7-7/9-9-----------------------------|-
-|-5--5---x--x--x--x-\x-x-x-x/x-x--7--7--7-7--7--0-0--0--0--0-|-
-|-3--3---9--9--9--9-\5-5-5-5/7-7--7--7--7-7--7--0-0--0--0--0-|-
-|-5--5----------------------------7--7--7-7--7--0-0--0--0--0-|-
  Play once


  [Chorus Con't 01:00 - 01:06]  Be...
-|------------------------------------------------------------|-
-|------------------------------------------------------------|-
-|--------11-11-11-11\7-7-7-7/9-9--7--7--7-7--7---------------|-
-|-2--2---x--x--x--x-\x-x-x-x/x-x--7--7--7-7--7--0-0--0--0--0-|-
-|-2--2---9--9--9--9-\5-5-5-5/7-7--5--5--5-5--5--0-0--0--0--0-|-
-|-2--2----------------------------5--5--5-5--5--0-0--0--0--0-|-
  Play once


  [Chorus Con't 01:06 - 01:11]  Say...
-|------------------------------------------------------------|-
-|------------------------------------------------------------|-
-|--------11-11-11-11\7-7-7-7/9-9-----------------------------|-
-|-5--5---x--x--x--x-\x-x-x-x/x-x--7--7--7-7--7--0-0--x-x---0-|-
-|-3--3---9--9--9--9-\5-5-5-5/7-7--7--7--7-7--7--0-0--x-x---0-|-
-|-5--5----------------------------7--7--7-7--7--0-0--x-x---0-|-
  Play once


  [Verse 01:11 - 01:30]  Me..
-|---------------------------|-
-|---------------------------|-
-|---------7--7--------------|-
-|-2--2----7--7----0-0--0--0-|-
-|-2--2----5--5----0-0--0--0-|-
-|-2--2----5--5----0-0--0--0-|-
  Play three times


  [Verse Con't 01:30 - 01:35]  The more I push the more I'm pullin away...
-|-----------------------------------|-
-|-----------------------------------|-
-|---------7--7--7--7-7--------------|-
-|-2--2----7--7--7--7-7--7-7--7--7-7-|-
-|-2--2----5--5--5--5-5--7-7--7--7-7-|-
-|-2--2----5--5--5--5-5--7-7--7--7-7-|-
  Play once


  [Chorus 01:35 - 01:41]  You...
-|------------------------------------------------------------|-
-|------------------------------------------------------------|-
-|--------11-11-11-11\7-7-7-7/9-9--7--7--7-7--7---------------|-
-|-2--2---x--x--x--x-\x-x-x-x/x-x--7--7--7-7--7--0-0--0--0--0-|-
-|-2--2---9--9--9--9-\5-5-5-5/7-7--5--5--5-5--5--0-0--0--0--0-|-
-|-2--2----------------------------5--5--5-5--5--0-0--0--0--0-|-
  Play once

[ Tab from: http://www.guitartabs.cc/tabs/l/linkin_park/lying_from_you_tab_ver_2.html ]
  [Chorus Con't 01:41 - 01:48]  Go...
-|------------------------------------------------------------|-
-|------------------------------------------------------------|-
-|--------11-11-11-11\7-7-7-7/9-9-----------------------------|-
-|-5--5---x--x--x--x-\x-x-x-x/x-x--7--7--7-7--7--0-0--0--0--0-|-
-|-3--3---9--9--9--9-\5-5-5-5/7-7--7--7--7-7--7--0-0--0--0--0-|-
-|-5--5----------------------------7--7--7-7--7--0-0--0--0--0-|-
  Play once


  [Chorus Con't 01:48 - 01:53]  Be...
-|------------------------------------------------------------|-
-|------------------------------------------------------------|-
-|--------11-11-11-11\7-7-7-7/9-9--7--7--7-7--7---------------|-
-|-2--2---x--x--x--x-\x-x-x-x/x-x--7--7--7-7--7--0-0--0--0--0-|-
-|-2--2---9--9--9--9-\5-5-5-5/7-7--5--5--5-5--5--0-0--0--0--0-|-
-|-2--2----------------------------5--5--5-5--5--0-0--0--0--0-|-
  Play once


  [Chorus Con't 01:53 - 01:56]	Say...	  [Chorus Con't 01:56 - 01:59]
-|--------------------------------|-	-|---------------------------|-
-|--------------------------------|-	-|---------------------------|-
-|--------11-11-11-11\7-7-7-7/9-9-|-	-|---------------------------|-
-|-5--5---x--x--x--x-\x-x-x-x/x-x-|-	-|-7--7--7-7--7--7-7--7--7-7-|-
-|-3--3---9--9--9--9-\5-5-5-5/7-7-|-	-|-7--7--7-7--7--7-7--7--7-7-|-
-|-5--5---------------------------|-	-|-7--7--7-7--7--7-7--7--7-7-|-
  Play once				  Play once
  

  [Chorus Con't 01:59 - 02:02]
-|----------------------------|-
-|----------------------------|-
-|----------------------------|-
-|-7--7--7-7--7--0-0--0-0-0-0-|-
-|-7--7--7-7--7--0-0--0-0-0-0-|-
-|-7--7--7-7--7--0-0--0-0-0-0-|-
  Play once	      PM.....


  [Bridge 02:02 - 02:12]  Me...		  [Bridge Con't 02:12 - 02:14]
-|----------------------------|-	-|---------------------|-
-|----------------------------|-	-|---------------------|-
-|----------------------------|-	-|---------------------|-
-|-0-2-2-1--0--3--2--1--0-6-6-|-	-|-0-2-2-1--0--3--2--1-|-
-|-0-2-2-1--0--3--2--1--0-6-6-|-	-|-0-2-2-1--0--3--2--1-|-
-|-0-2-2-1--0--3--2--1--0-6-6-|-	-|-0-2-2-1--0--3--2--1-|-
  Play once				  Play once


  [Bridge Con't 02:14 - 02:24]  This...	  [Bridge Con't 02:24 - 02:26]
-|----------------------------|-	-|---------------------|-
-|----------------------------|-	-|---------------------|-
-|----------------------------|-	-|---------------------|-
-|-0-2-2-1--0--3--2--1--0-6-6-|-	-|-0-2-2-1--0--3--2--1-|-
-|-0-2-2-1--0--3--2--1--0-6-6-|-	-|-0-2-2-1--0--3--2--1-|-
-|-0-2-2-1--0--3--2--1--0-6-6-|-	-|-0-2-2-1--0--3--2--1-|-
  Play once				  Play once


  [Chorus Con't 02:26 - 02:33]  You...
-|------------------------------------------------------------|-
-|------------------------------------------------------------|-
-|--------11-11-11-11\7-7-7-7/9-9--7--7--7-7--7---------------|-
-|-2--2---x--x--x--x-\x-x-x-x/x-x--7--7--7-7--7--0-0--0--0--0-|-
-|-2--2---9--9--9--9-\5-5-5-5/7-7--5--5--5-5--5--0-0--0--0--0-|-
-|-2--2----------------------------5--5--5-5--5--0-0--0--0--0-|-
  Play once


  [Chorus Con't 02:33 - 02:39]  Go...
-|------------------------------------------------------------|-
-|------------------------------------------------------------|-
-|--------11-11-11-11\7-7-7-7/9-9-----------------------------|-
-|-5--5---x--x--x--x-\x-x-x-x/x-x--7--7--7-7--7--0-0--0--0--0-|-
-|-3--3---9--9--9--9-\5-5-5-5/7-7--7--7--7-7--7--0-0--0--0--0-|-
-|-5--5----------------------------7--7--7-7--7--0-0--0--0--0-|-
  Play once


  [Chorus Con't 02:39 - 02:45]  Be...
-|------------------------------------------------------------|-
-|------------------------------------------------------------|-
-|--------11-11-11-11\7-7-7-7/9-9--7--7--7-7--7---------------|-
-|-2--2---x--x--x--x-\x-x-x-x/x-x--7--7--7-7--7--0-0--0--0--0-|-
-|-2--2---9--9--9--9-\5-5-5-5/7-7--5--5--5-5--5--0-0--0--0--0-|-
-|-2--2----------------------------5--5--5-5--5--0-0--0--0--0-|-
  Play once


  [Chorus Con't 02:45 - 02:48]	Say...	  [Chorus Con't 02:48 - 02:50]
-|--------------------------------|-	-|---------------------------|-
-|--------------------------------|-	-|---------------------------|-
-|--------11-11-11-11\7-7-7-7/9-9-|-	-|---------------------------|-
-|-5--5---x--x--x--x-\x-x-x-x/x-x-|-	-|-7--7--7-7--7--7-7--7--7-7-|-
-|-3--3---9--9--9--9-\5-5-5-5/7-7-|-	-|-7--7--7-7--7--7-7--7--7-7-|-
-|-5--5---------------------------|-	-|-7--7--7-7--7--7-7--7--7-7-|-
  Play once				  Play once  


  [Chorus Con't 02:50 - 02:54]
-|-----------------------|-
-|-----------------------|-
-|-----------------------|-
-|-7--7--7-7--7--0-0---0-|-
-|-7--7--7-7--7--0-0---0-|-
-|-7--7--7-7--7--0-0---0-|-
  Play once
	      

END [2:55]

Comments