Linkin Park - In The End Chords & Tabs

 

In The End Chords & Tabs

Linkin Park Chords & Tabs

Version: 8 Type: Tab 0 ratings
1 star 2 stars 3 stars 4 stars 5 stars
comments

In The End Tab

OK, I read the other guitar tabs for this song and I just
dont like them! Here's the version I think is right:

drop all sitrings down 1/2 step, and drop D
Intro, transcribed for guitar

                                           1st          2nd
eb[-------------------------------------]-------------][---]
bb[-----0--0--------------------0--0----]-------------][---]
gb[-----------0-----------0-----------0-]----------0--][---]
db[---2----------4--4--4-----2----------]-4--4--4-----][-4-]
ab[--------------5-----------3----------]-5-----------][-5-]
db[-------------------------------------]-------------][---]
[ Tab from: http://www.guitartabs.cc/tabs/l/linkin_park/in_the_end_tab_ver_8.html ]
repeat
 a whole bunch of times
                    then,distorted
  [--------7--------12]----------------------]
  [-----7--------7----]----------------------]
  [--5--------7-------]-------------------5--]
  [-------------------]0--2--(2)/5--5--0--5--]
  [-------------------]0--2--(2)/5--5--0--3--]
  [-------------------]0--2--(2)/5--5--0-----]

then repeat the first part a whole bunch of tmies, then at the end, do this

                    HOLD
  [----------0--2--3--2-]
  [-------0-------------]
  [----0----------------]
  [-2-------------------]
  [---------------------]
  [---------------------]

thats it! enjoy :^D
Comments