Linkin Park - In The End Chords & Tabs

 

In The End Chords & Tabs

Linkin Park Chords & Tabs

Version: 4 Type: Tab 0 ratings
1 star 2 stars 3 stars 4 stars 5 stars
comments

In The End Tab

   
Linkin Park - In The End
Track 8, Hybrid Theory
Tuning: Drop-D down half step
(C# G# C# F# A# D#)

   DJ (on piano) x1
D#|--------------------------------------------------------------|-
A#|--------------------------------------------------------------|-
F#|---4-4-0--------0---4-4-0--------0---4-4-0--------0---4-4-0---|-
C#|-2-------4-4-4-4--2-------4-4-4-4--2-------4-4-4-4--2-------4-|-
G#|--------------------------------------------------------------|-
C#|--------------------------------------------------------------|-
    Q Q Q Q Q Q Q EE Q Q Q Q Q Q Q EE Q Q Q Q Q Q Q EE Q Q Q Q Q


   Verse (clean, w/harmonics - see note) x4
D#|------------7------------------12------|-
A#|---7------------------7----------------|-
F#|-5------------------5------------------|-
C#|---------------------------------------|-
G#|---------------------------------------|-
C#|---------------------------------------|-
    Q W        H.      Q  W       H.


   Chorus(distorted) x1
D#|----------------------------------------------------------------------------|-
A#|----------------------------------------------------------------------------|-
F#|--------------------7--------5---------------------------7--------5-----/-4-|-
C#|-2-------/-5--------5--------5------0-2-------/-5--------5--------3-----/-2-|-
G#|-2-------/-5--------5--------3------0-2-------/-5--------5--------3-----/-2-|-
C#|-2-------/-5--------0---------------0-2-------/-5--------0------------------|-
    w         w        W        H.     Q W         W        W        H.      Q


   Verse (clean, w/harmonics - see note) x4
D#|------------7------------------12------|-
A#|---7------------------7----------------|-
F#|-5------------------5------------------|-
C#|---------------------------------------|-
G#|---------------------------------------|-
C#|---------------------------------------|-
    Q W        H.      Q  W       H.
[ Tab from: http://www.guitartabs.cc/tabs/l/linkin_park/in_the_end_tab_ver_4.html ]
   Chorus(distorted) x1
D#|----------------------------------------------------------------------------------|-
A#|----------------------------------------------------------------------------------|-
F#|--------------------7--------5---------------------------7--------5------5--------|-
C#|-2-------/-5--------5--------5------0-2-------/-5--------5--------3------3--------|-
G#|-2-------/-5--------5--------3------0-2-------/-5--------5--------3------3--------|-
C#|-2-------/-5--------0---------------0-2-------/-5--------0---------------3--------|-
    w         w        W        H.     Q W         W        W        W      W

   DJ (on piano) x1
D#|--------------------------------------------------------------|-
A#|--------------------------------------------------------------|-
F#|---4-4-0--------0---4-4-0--------0---4-4-0--------0---4-4-0---|-
C#|-2-------4-4-4-4--2-------4-4-4-4--2-------4-4-4-4--2-------4-|-
G#|--------------------------------------------------------------|-
C#|--------------------------------------------------------------|-
    Q Q Q Q Q Q Q EE Q Q Q Q Q Q Q EE Q Q Q Q Q Q Q EE Q Q Q Q Q


   Chorus(distorted) x2
D#|----------------------------------------------------------------------------|-
A#|----------------------------------------------------------------------------|-
F#|--------------------7--------5---------------------------7--------5-----/-4-|-
C#|-2-------/-5--------5--------5------0-2-------/-5--------5--------3-----/-2-|-
G#|-2-------/-5--------5--------3------0-2-------/-5--------5--------3-----/-2-|-
C#|-2-------/-5--------0---------------0-2-------/-5--------0------------------|-
    w         w        W        H.     Q W         W        W        H.      Q

   DJ (on piano) x1
D#|--------------------------------------------------------------------------------0-1-2-1-|-
A#|------------------------------------------------------------------------------0---------|-
F#|---4-4-0--------0---4-4-0--------0---4-4-0--------0---4-4-0--------0--------0-----------|-
C#|-2-------4-4-4-4--2-------4-4-4-4--2-------4-4-4-4--2-------4-4-4-4-------2-------------|-
G#|----------------------------------------------------------------------------------------|-
C#|----------------------------------------------------------------------------------------|-
    Q Q Q Q Q Q Q EE Q Q Q Q Q Q Q EE Q Q Q Q Q Q Q EE Q Q Q Q Q Q Q EH.     Q Q Q Q Q Q Q




NOTE ON HARMONICS
Harmonics are simple to play, IF you know what to do. Barely rest your 4th finger directly over fret 5, string 3.
Attack the string and immediately take your finger off the string. If done right, you should hear something like
a bell ringing. If not, you should hear a muffled thump. Keep trying until you get it. When you feel you have it,
move on to the next note - 7th fret, 2nd string. Repeat.
QUICK TIPS: Don't press down much, if at all. Place your finger DIRECTLY OVER the fret bar - not somewhere in
between, as normally played. Take your finger off the string IMMEDIATELY after you attack the string, and try not
to touch the string after. Doing so will kill the sound fast.
Comments