Linkin Park - In The End Chords & Tabs

 

In The End Chords & Tabs

Linkin Park Chords & Tabs

Version: 1 Type: Tab 0 ratings
1 star 2 stars 3 stars 4 stars 5 stars
comments

In The End Tab

     IN THE END
       by Linkin Park
 
  tuned down 1/2 step, and drop D
 
 
[ Tab from: http://www.guitartabs.cc/tabs/l/linkin_park/in_the_end_tab.html ]
   INTRO/BRIDGE:
  e-------------------------------------||
  b-------------------------------------||
  g-------------------------------------||
  d---9-9-------------------------------||
  a-7-----10-9-9-9-9-10-----------------||
  e-------------------------------------||
    piano arranged for guitar
  
    VERSE:
  e---------7-------------12------------||
  b---7------------7--------------------||
  g-5------------5----------------------||
  d-------------------------------------||
  a-------------------------------------||
  e-------------------------------------||
    all harmonics
  
    CHORUS:
  e-------------------------------------||
  b-------------------------------------||
  g----------5--------------------------||
  d-2--5--0--5--------------------------||
  a-2--5--0--3--------------------------||
  e-2--5--0-----------------------------||
  
  
\par 
\par 
\par 
\par 
\par }
 
Comments