Linkin Park - In The End Chords & Tabs

 

In The End Chords & Tabs

Linkin Park Chords & Tabs

Version: 5 Type: Bass Tab 0 ratings
1 star 2 stars 3 stars 4 stars 5 stars
comments

In The End Bass Tab

Linkin Park- In The End
_________________________________________

No Bass Until 0:21

Verse:
G |---------------------------------------------|
D |---------------------------------------------|
A |-66666-6-6-44444-4-4-22222-2-2-44444-4-4-----|
E |---------------------------------------------| (x4)
[ Tab from: http://www.guitartabs.cc/tabs/l/linkin_park/in_the_end_btab_ver_5.html ]
Normal Chorus:
G |-----------------------------------------|
D |-----4--4--------------4--4--------------|
A |-6--6----4--42-----6--6----4--42---1-----|
E |-----------------4-----------------------| (x1)

Chorus #2
G |---------------------------------------------------|
D |-----4--4--------------4--4------------------------|
A |-6--6----4--42-----6--6----4--42-----2-----6--6-64-| (Verse)
E |-----------------4-----------------------------8---| (x1)

Order-

Verse
Normal Chorus
Verse
Chorus#2-Verse
Normal Chorus
Comments