Linkin Park - In The End Acoustic Chords & Tabs

 

In The End Acoustic Chords & Tabs

Linkin Park Chords & Tabs

Version: 1 Type: Tab 0 ratings
1 star 2 stars 3 stars 4 stars 5 stars
comments

In The End Acoustic Tab

   
========================
Linkin Park - In The End
========================

standard tuning
acoustic

=intro=
e-----------------------|
B----0-0----------------|
G--------0----------0---|
D--2-------4-4-4-4------|
A-----------------------|
E-----------------------|

=verse=
  Am   C   Em
e---------------|
B------11-------|
G-222--xx-------|
D-222--22--2----|
A------33--2----|
E---------------|

[ Tab from: http://www.guitartabs.cc/tabs/l/linkin_park/in_the_end_acoustic_tab.html ]
=chourus=
e----------------------------|
B----------------------------|
G---5555----77777-----33333--|
D---5555----77777-----33333--|
A---3333----55555-----11111--|
E----------------------------|
"i tried so hard and got so far..."

e----------------------------------|
B----------------------------------|
G------33333--------77777----55555-|
D------33333--------77777----55555-|
A------11111--------55555----33333-|
E----------------------------------|
"but in the end, it dosent even matter"

=bridge=
e--------------|
B--------------|
G------55------|
D-222--55--555-|
A-222--33--555-|
E-222------555-|
"Ive put my trust in you..."

=outro=
e-------------------|
B-------------------|
G-------9-11-12-11--|
D-----9-------------|
A-7-10--------------|
E-------------------|
Comments