Linkin Park - Hit The Floor Chords & Tabs

 

Hit The Floor Chords & Tabs

Linkin Park Chords & Tabs

Version: 9 Type: Tab 0 ratings
1 star 2 stars 3 stars 4 stars 5 stars
comments

Hit The Floor Tab

Artist: Linkin Park.
Song: Hit The Floor.
Album: Meteora.
Transcribed by: Paul
E-mail: lplplplplplp@linkinpark.com


This is off there new album Meteora. I read a interview with lp in Guitar World
and Brad Delson said that he uses (C#-G#-C#-F#-A#-D#) tuning in most of his
songs, and I know this is the right tuning for this song.

                             Intro, Palm Mute.
D#|------------------------------------------------------------------------|
A#|------------------------------------------------------------------------|
F#|------------------------------------------------------------------------|
C#|------------------------------------------------------------------------|
G#|------------------------------------------------------------------------|
C#|-0-4-0-1--1-1-0----0-4-0-1--1-1-0----0-4-0-1--1-1-0----0-4-1--1-1-0-----|
[ Tab from: http://www.guitartabs.cc/tabs/l/linkin_park/hit_the_floor_tab_ver_9.html ]
 
D#|---------------------------------------------------------------------------|
A#|---------------------------------------------------------------------------|
F#|---------------------------------------------------------------------------|
C#|-0-8-8-8-7--0-4-0-1--1-1-1-0--0-8-8-8-7--0-4-0-1--1-1-1-0--0-8-8-8-7-------|
G#|-0-8-8-8-7--0-4-0-1--1-1-1-0--0-8-8-8-7--0-4-0-1--1-1-1-0--0-8-8-8-7-------|
C#|-0-8-8-8-7--0-4-0-1--1-1-1-0--0-8-8-8-7--0-4-0-1--1-1-1-0--0-8-8-8-7-------|

                            Chorus.
D#|---------------------------------------------------------------------------|
A#|---------------------------------------------------------------------------|
F#|---------------------------------------------------------------------------|
C#|-0-8-8-7--0-4-0-1--1-1-1-0--0-8-8-8-7--0-4-0-1--1-1-1-0--0-8-8-8-7---------|
G#|-0-8-8-7--0-4-0-1--1-1-1-0--0-8-8-8-7--0-4-0-1--1-1-1-0--0-8-8-8-7---------|
C#|-0-8-8-7--0-4-0-1--1-1-1-0--0-8-8-8-7--0-4-0-1--1-1-1-0--0-8-8-8-7---------|

                          Interlude.
D#|---------------------------------------------------------------|
A#|---------------------------------------------------------------|
F#|---------------------------------------------------------------|
C#|-0--0--0--0-3--0--0--0--0-1--0--0--0--0-3--0--0--0--0-1--------|
G#|-0--0--0--0-3--0--0--0--0-1--0--0--0--0-3--0--0--0--0-1--------|
C#|-0--0--0--0-3--0--0--0--0-1--0--0--0--0-3--0--0--0--0-1--------|


Well thats the whole song. I'm 100% sure that this tabs correct.
Any questions or comments E-mail me.
Comments