Linkin Park - Hit The Floor Chords & Tabs

 

Hit The Floor Chords & Tabs

Linkin Park Chords & Tabs

Version: 8 Type: Tab 0 ratings
1 star 2 stars 3 stars 4 stars 5 stars
comments

Hit The Floor Tab

Intro/Verse
Eb | --------------------------- 
Bb | ---------------------------
Gb | ---------------------------
Db | ---------------------------
Ab | --------------------------- 
Db | -0-4-0-1---1-1-0----------- (X4)
	(palm muted)   

Pre Chorus
Eb | -----------------------------
Bb | -----------------------------
Gb | ----3-3-3-2------------------
Db | -0--3-3-3-2------------------
Ab | -0--1-1-1-0------------------
Db | -0--------------------------- (X1)
[ Tab from: http://www.guitartabs.cc/tabs/l/linkin_park/hit_the_floor_tab_ver_8.html ]
Chorus
Eb | ------------------------------------------
Bb | ------------------------------------------
Gb | -----------------------------3-3-3-2------
Db | -0--4--0--1-----1-1-0-----0--1-1-1-0------
Ab | -0--4--0--1-----1-1-0-----0--1-1-1-0------
Db | -0--4--0--1-----1-1-0-----0--------------- (X4) 


"And then its all gone"
Eb | --------------------------------------------------
Bb | --------------------------------------------------
Gb | --------------------------------------------------
Db | -0--0--0---5-5------------0--0--0---3-3-----------
Ab | -0--0--0---3-3------------0--0--0---1-1-----------
Db | -0--0--0---3-3------------0--0--0---1-1----------- (X2)
Comments