Linkin Park - Hit The Floor Chords & Tabs

 

Hit The Floor Chords & Tabs

Linkin Park Chords & Tabs

Version: 2 Type: Tab 0 ratings
1 star 2 stars 3 stars 4 stars 5 stars
comments

Hit The Floor Tab

   
Artist: Linkin Park
Title: Hit The Floor
Album: Meteora
Transcribed by: Beaver

Tuning: Dropped-C#
C# G# C# F# A# D# 


 NOTE  


For the verses, under that heavy PM'd guitar you can hear DJ sample
of some string tapping.  Not tapping in the conventional super speedy
arpeggio van halen sense, but in the abstract sense that TOOL created,
a great band by the way, check them out if you don't know them. Anyways,
the sound can be recreated with an echo effect, and by laying your fingers
across the strings anywhere over the fretboard, not pushing the strings 
down, just keeping them from ringing.  Then tap the strings with the edge
of your pick in the rhythm you'll hear.  How far up the string from the
bridge you pick determines the pitch, so mess around with it to get the
feel of things.

  [Intro 00:02 - 00:13]					
-|----------------|-
-|----------------|-
-|----------------|-
-|----------------|-
-|----------------|-
-|-0-4-0-1--1-1-0-|-
   PM............
   Play four times

  
  [Intro Con't 00:13 - 00:25]
-|-----------|-	  -|---------------------------|-    -|----------------|-
-|-----------|-	  -|---------------------------|-    -|----------------|-
-|-----------|-	  -|---------------------------|-    -|----------------|-
-|-0-8-8-8-7-|-	  -|-0-4-0-1--1-1-0--0-8-8-8-7-|-    -|-0-4-0-1--1-1-0-|-
-|-0-8-8-8-7-|-	  -|-0-4-0-1--1-1-0--0-8-8-8-7-|-    -|-0-4-0-1--1-1-0-|-
-|-0-8-8-8-7-|-   -|-0-4-0-1--1-1-0--0-8-8-8-7-|-    -|-0-4-0-1--1-1-0-|-
  Play Once         Play three times                   Play Once	

  
  [Verse 00:25 - 00:51]	
-|----------------|-
-|----------------|-
-|----------------|-
-|----------------|-
-|----------------|-
-|-0-4-0-1--1-1-0-|-
   PM............
   Play eight times

[ Tab from: http://www.guitartabs.cc/tabs/l/linkin_park/hit_the_floor_tab_ver_2.html ]
  [Chorus 00:51 - 01:05]
-|-----------|-	  -|---------------------------|-    
-|-----------|-	  -|---------------------------|-    
-|-----------|-	  -|---------------------------|-    
-|-0-8-8-8-7-|-	  -|-0-4-0-1--1-1-0--0-8-8-8-7-|-    
-|-0-8-8-8-7-|-	  -|-0-4-0-1--1-1-0--0-8-8-8-7-|-    
-|-0-8-8-8-7-|-   -|-0-4-0-1--1-1-0--0-8-8-8-7-|-    
  Play Once         Play three times		     

  
  [Verse 01:05 - 01:33]
-|----------------|-
-|----------------|-
-|----------------|-
-|----------------|-
-|----------------|-
-|-0-4-0-1--1-1-0-|-
   PM............
   Play nine times


  [Chorus 01:33 - 01:47]
-|-----------|-	  -|---------------------------|-    
-|-----------|-	  -|---------------------------|-    
-|-----------|-	  -|---------------------------|-    
-|-0-8-8-8-7-|-	  -|-0-4-0-1--1-1-0--0-8-8-8-7-|-    
-|-0-8-8-8-7-|-	  -|-0-4-0-1--1-1-0--0-8-8-8-7-|-    
-|-0-8-8-8-7-|-   -|-0-4-0-1--1-1-0--0-8-8-8-7-|-
  Play Once         Play four times


  [Chorus Con't 01:47 - 1:59]
-|------------------------------|-
-|------------------------------|-
-|------------------------------|-
-|-0--0--0--3-3----0--0--0--1-1-|-  
-|-0--0--0--3-3----0--0--0--1-1-|-  
-|-0--0--0--3-3----0--0--0--1-1-|-
  Play twice


  [Verse 01:59 - 02:11]
-|----------------|-
-|----------------|-
-|----------------|-
-|----------------|-
-|----------------|-
-|-0-4-0-1--1-1-0-|-
   PM............   
   Play four times


  [Chorus 02:11 - 02:25]
-|---------------------------|- 
-|---------------------------|- 
-|---------------------------|- 
-|-0-4-0-1--1-1-0--0-8-8-8-7-|-
-|-0-4-0-1--1-1-0--0-8-8-8-7-|-
-|-0-4-0-1--1-1-0--0-8-8-8-7-|-
  Play four times


  [Chorus Con't 02:25 - 02:38]
-|------------------------------|-
-|------------------------------|-
-|------------------------------|-
-|-0--0--0--3-3----0--0--0--1-1-|-  
-|-0--0--0--3-3----0--0--0--1-1-|-  
-|-0--0--0--3-3----0--0--0--1-1-|-
   Play twice


  [Chorus Con't 02:38 - 02:44]
-|---------------------------|-    -|----------------|-
-|---------------------------|-    -|----------------|-
-|---------------------------|-    -|----------------|- 
-|-0-4-0-1--1-1-0--0-8-8-8-7-|-    -|-0-4-0-1--1-1-0-|-
-|-0-4-0-1--1-1-0--0-8-8-8-7-|-    -|-0-4-0-1--1-1-0-|-
-|-0-4-0-1--1-1-0--0-8-8-8-7-|-    -|-0-4-0-1--1-1-0-|- 
   Play once         (cut these 8's as short as possible)
				     Play once

END [2:44]

Comments