Linkin Park - Hit The Floor Chords & Tabs

 

Hit The Floor Chords & Tabs

Linkin Park Chords & Tabs

Version: 1 Type: Tab 0 ratings
1 star 2 stars 3 stars 4 stars 5 stars
comments

Hit The Floor Tab

Linkin Park - Hit The Floor
tablated by Brendon Allan (i_am_hork@hotmail.com)
Taken from Meteora
Dropped D Tuning


Hey there, this tab is the right way to play, at least i think so well it goes to the song anyway, and ive tabbed
it out all in sequence so its easy for ya. Cheers, let me know what ya think, if you can be bothered.
I also have tabbed Figure .09 out as well which is an awesome song.
L8rs.


Intro (palm muted) 00:00 - 00:13             x4
e--------------------------------------------
B--------------------------------------------
G--------------------------------------------
D--------------------------------------------
A--------------------------------------------
D---0----5----0----1----1--1----0------------


Intro continued  00:13 - 00:26                                x4
e-------------------------------------------------------------
B-------------------------------------------------------------
G-------------------------------------------------------------
D-------------------------------------------------------------
A---0---/8-8-8-7------0----5----0----1----1--1----0-----------
D---0---/8-8-8-7------0----5----0----1----1--1----0-----------


Verse (palm muted) 00:27 - 00:51             x8
e--------------------------------------------
B--------------------------------------------
G--------------------------------------------
D--------------------------------------------
A--------------------------------------------
D---0----5----0----1----1--1----0------------


Chorus  00:51 - 1:03                                          x4
e-------------------------------------------------------------
B-------------------------------------------------------------
G-------------------------------------------------------------
D-------------------------------------------------------------
A---0---/8-8-8-7----0----5----0----1----1--1----0-------------
D---0---/8-8-8-7----0----5----0----1----1--1----0-------------


Bit after the Chorus  1:04 - 1:07                             x1
e-------------------------------------------------------------
B-------------------------------------------------------------
G-------------------------------------------------------------
D-------------------------------------------------------------
A---0---/8-8-8-7----------------------------------------------
D---0---/8-8-8-7------0----5----0----1----1--1----0-----------


Verse 2 (palm muted) 1:08 - 1:32             x8
e--------------------------------------------
B--------------------------------------------
G--------------------------------------------
D--------------------------------------------
A--------------------------------------------
D---0----5----0----1----1--1----0------------


Chorus 2  1:32 - 1:45                                         x4
e-------------------------------------------------------------
B-------------------------------------------------------------
G-------------------------------------------------------------
D-------------------------------------------------------------
A---0---/8-8-8-7----0----5----0----1----1--1----0-------------
D---0---/8-8-8-7----0----5----0----1----1--1----0-------------

[ Tab from: http://www.guitartabs.cc/tabs/l/linkin_park/hit_the_floor_tab.html ]
Bit after the 2nd Chorus      x1
e-----------------------------
B-----------------------------
G-----------------------------
D-----------------------------
A---0---/8-8-8-7--------------
D---0---/8-8-8-7--------------


Bridge (or whatever its called!) 1:46 : 1:58                  x2
e-------------------------------------------------------------
B-------------------------------------------------------------
G-------------------------------------------------------------
D-------------------------------------------------------------
A---0--0--0--3-3---------------0--0--0--1-1-------------------
D---0--0--0--3-3---------------0--0--0--1-1-------------------


Verse 3 (palm muted)                         x4
e--------------------------------------------
B--------------------------------------------
G--------------------------------------------
D--------------------------------------------
A--------------------------------------------
D---0----5----0----1----1--1----0------------


Bit after the third verse                   x1
e-------------------------------------------
B-------------------------------------------
G-------------------------------------------
D-------------------------------------------
A---0----5----0----1----1--1----0-----------
D---0----5----0----1----1--1----0-----------


Chorus 3                                                      x4
e-------------------------------------------------------------
B-------------------------------------------------------------
G-------------------------------------------------------------
D-------------------------------------------------------------
A---0---/8-8-8-7----0----5----0----1----1--1----0-------------
D---0---/8-8-8-7----0----5----0----1----1--1----0-------------


Bit after the 3rd chorus      x1
e-----------------------------
B-----------------------------
G-----------------------------
D-----------------------------
A---0---/8-8-8-7--------------
D---0---/8-8-8-7--------------


Bridge again (or whatever its called!)                        x2
e-------------------------------------------------------------
B-------------------------------------------------------------
G-------------------------------------------------------------
D-------------------------------------------------------------
A---0--0--0--3-3---------------0--0--0--1-1-------------------
D---0--0--0--3-3---------------0--0--0--1-1-------------------


Finale                                                                                                                                                                               x1
e--------------------------------------------------------------------------------------------------
B--------------------------------------------------------------------------------------------------
G--------------------------------------------------------------------------------------------------
D--------------------------------------------------------------------------------------------------
A---0----5----0----1----1--1----0------------0----8-8-8-7----0----5----0----1----1--1----0---------
D---0----5----0----1----1--1----0------------0----8-8-8-7----0----5----0----1----1--1----0---------
                                                  pm_____
Comments