Linkin Park - High Voltage Live Chords & Tabs

 

High Voltage Live Chords & Tabs

Linkin Park Chords & Tabs

Version: 1 Type: Tab 0 ratings
1 star 2 stars 3 stars 4 stars 5 stars
comments

High Voltage Live Tab

song: hi voltage
artist: linkin park
tabbed by the greatest fan of l.p: yashveen
live at rock 'n' roll fame

intro
e-------17--15--17~-----18-18-17~17--15--17~--13-13-12~--(x4)
B--15----------------------------------------------------
G--------------------------------------------------------
D--------------------------------------------------------
A--------------------------------------------------------
E--------------------------------------------------------

verse
e---------16--14------17--16--14------------------------(x4)
B----14-----------17-----------------17-----------------
G-------------------------------------------------------
D-------------------------------------------------------
A-------------------------------------------------------
E-------------------------------------------------------

INTRO TO DO ( x2)

[ Tab from: http://www.guitartabs.cc/tabs/l/linkin_park/high_voltage_live_tab.html ]
pre-chorus
e---------18~~--14~--18~~---16~--18~~-14~-18~~-------(x2)
B---18-~---------------------------------------------
G----------------------------------------------------
D----------------------------------------------------
A----------------------------------------------------
E----------------------------------------------------

chorus 1 -no guitar

chorus 2 (with distortion)
e----16~~~~~~~~~-------------------------------------(x8)
B----------------------------------------------------
G----------------------------------------------------
D----------------------------------------------------
A----------------------------------------------------
E----------------------------------------------------

bridge ( "sometimes i.............") when chester sings (with distortion)
e-----16~~~----16~~------16~~-------16~~------------(x2)
B-----16~~~----16~~------16~~-------16-~~-----------
G---------------------------------------------------
D---------------------------------------------------
A---------------------------------------------------
E---------------------------------------------------

chorus to do (x6)

Great song.
Comments