Linkin Park - From The Inside Chords & Tabs

 

From The Inside Chords & Tabs

Linkin Park Chords & Tabs

Version: 7 Type: Tab 0 ratings
1 star 2 stars 3 stars 4 stars 5 stars
comments

From The Inside Tab

Tuning- Drop D halfsteps
Palm mute-* harmonic-()

intro
e ----------------
b -11---11---8----
g ----7----7---7--
d ----------------
a ----------------
D ----------------

chorus
e ----------------------------------------------------------
b ----------------------------------------------------------
g ----------------------------------------------------------
d -------------00-0-0-0---33-3-3-3---88-8-8-8---5555-7777---
a -------------00-0-0-0---33-3-3-3---88-8-8-8---5555-7777---
D 12*12*12*12*-00-0-0-0---33-3-3-3---88-8-8-8---5555-7777---
[ Tab from: http://www.guitartabs.cc/tabs/l/linkin_park/from_the_inside_tab_ver_7.html ]
interlude
e ---------------------------------------
b ---------------------------------------
g ---------------------------------------
d -00-0-0---00-0-0---00-0-0---11-1-1-----
a -00-0-0---00-0-0---00-0-0---11-1-1-----
D -00-0-0---00-0-0---00-0-0---11-1-1-----

e -----------------|---------------------
b -----------------|---------------------
g -----------------|---------------------
d -00-0-0-(5)-0-1--|--11-1-1--11-1-1-----
a -00-0-0-----0-1--|--11-1-1--11-1-1-----
D -00-0-0-----0-1--|--11-1-1--11-1-1-----

outro
e ---------------------------------------
b ---------------------------------------
g ---------------------------------------
d -00-0-0---00-0-0---00-0-0---0*-0*-0*---
a -00-0-0---00-0-0---00-0-0---0*-0*-0*---
D -00-0-0---00-0-0---00-0-0---0*-0*-0*---

alright thats it. better friggin enjoy it. :)
Comments