Linkin Park - From The Inside Chords & Tabs

 

From The Inside Chords & Tabs

Linkin Park Chords & Tabs

Version: 6 Type: Tab 0 ratings
1 star 2 stars 3 stars 4 stars 5 stars
comments

From The Inside Tab

Intro
eb-----------------------------------------------------------
Bb-----------------------------------------------------------
Gb-----------------------------------------------------------
Db--7-----7-----5-----7-----7-----5--------------------------
Ab-----5-----5-----5-----5-----5-----5-----------------------
Db-----------------------------------------------------------


Chorus
eb-----------------------------------------------------------
Bb-----------------------------------------------------------
Gb-----------------------------------------------------------
Db--0--0-0-0-0-0---3--3-3-3-3-3--8--8-8-8-8-8--5-5-5--7-7-7--
Ab--0--0-0-0-0-0---3--3-3-3-3-3--8--8-8-8-8-8--5-5-5--7-7-7--
Db--0--0-0-0-0-0---3--3-3-3-3-3--8--8-8-8-8-8--5-5-5--7-7-7--


Verse
eb-----------------------------------------------------------
Bb-----------------------------------------------------------
Gb-----------------------------------------------------------
Db-----------------------------------------------------------
Ab--12------12------12------12------10------10------10-------
Db------12------12------12------12------10------10------10---

(continued)
eb-----------------------------------------------------------
Bb-----------------------------------------------------------
Gb-----------------------------------------------------------
Db---------7-----7-----7-----7-----5-----5-----5-------------
Ab--8--7---------------------------------------------8--7----
Db------------8-----8-----8-----8-----5-----5-----5----------

[ Tab from: http://www.guitartabs.cc/tabs/l/linkin_park/from_the_inside_tab_ver_6.html ]
Fill
eb-----------------------------------------------------------
Bb-----------------------------------------------------------
Gb-----------------------------------------------------------
Db-----------------------------------------------------------
Ab-----------------------------------------------------------
Db--<5>-<5>-<5>-<5>------------------------------------------


Bridge 1
eb-----------------------------------------------------------
Bb-----------------------------------------------------------
Gb-----------------------------------------------------------
Db--0-0--0--0----0-0--0--0----0-0--0--0----1-1--1--1---------
Ab--0-0--0--0----0-0--0--0----0-0--0--0----1-1--1--1---------
Db--0-0--0--0----0-0--0--0----0-0--0--0----1-1--1--1---------


Bridge 2
eb-----------------------------------------------------------
Bb-----------------------------------------------------------
Gb-----------------------------------------------------------
Db--0-0--0--0--------0--1-----0-0--0--0--------0--1----------
Ab--0-0--0--0--<7>---0--1-----0-0--0--0--<7>---0--1----------
Db--0-0--0--0--------0--1-----0-0--0--0--------0--1----------

(continued)
eb-----------------------------------------------------------
Bb-----------------------------------------------------------
Gb-----------------------------------------------------------
Db--0-0--0--0--------0--1-----1-1--1--1----1-1--1--1---------
Ab--0-0--0--0--<7>---0--1-----1-1--1--1----1-1--1--1---------
Db--0-0--0--0--------0--1-----1-1--1--1----1-1--1--1---------


Outro
eb-----------------------------------------------------------
Bb-----------------------------------------------------------
Gb-----------------------------------------------------------
Db--0-0--0--0----0-0--0--0----0-0--0--0----0-0--0--0---------
Ab--0-0--0--0----0-0--0--0----0-0--0--0----0-0--0--0---------
Db--0-0--0--0----0-0--0--0----0-0--0--0----0-0--0--0---------



Riff
Chorus, Riff
Verse
Fill
Chorus, Riff
Verse
Fill
Chorus, Riff
Bridge 1, Riff
Bridge 2, Riff
Chorus (wait a few beats then start), Riff
Outro
Comments