Linkin Park - From The Inside Chords & Tabs

 

From The Inside Chords & Tabs

Linkin Park Chords & Tabs

Version: 5 Type: Tab 0 ratings
1 star 2 stars 3 stars 4 stars 5 stars
comments

From The Inside Tab

Intro
Eb---------------------------------------------------------------------
Bb---------------------------------------------------------------------
Gb---------------------------------------------------------------------
Db--7-----7-----5-----7-----7-----5------------------------------------ x3
Ab-----5-----5-----5-----5-----5-----5---------------------------------
Db---------------------------------------------------------------------

Chorus
Eb---------------------------------------------------------------------
Bb---------------------------------------------------------------------
Gb---------------------------------------------------------------------
Db--0--0-0-0-0-0---3--3-3-3-3-3--8--8-8-8-8-8--5-5-5-7-7-7------------- x2
Ab--0--0-0-0-0-0---3--3-3-3-3-3--8--8-8-8-8-8--5-5-5-7-7-7-------------
Db--0--0-0-0-0-0---3--3-3-3-3-3--8--8-8-8-8-8--5-5-5-7-7-7-------------

Fill
Eb---------------------------------------------------------------------
Bb---------------------------------------------------------------------
Gb---------------------------------------------------------------------
Db---------------------------------------------------------------------
Ab---------------------------------------------------------------------
Db---5--5--5--5--------------------------------------------------------
[ Tab from: http://www.guitartabs.cc/tabs/l/linkin_park/from_the_inside_tab_ver_5.html ]
Bridge 1
Eb---------------------------------------------------------------------
Bb---------------------------------------------------------------------
Gb---------------------------------------------------------------------
Db--0-0--0--0----0-0--0--0----0-0--0--0----1-1--1--1-------------------
Ab--0-0--0--0----0-0--0--0----0-0--0--0----1-1--1--1-------------------
Db--0-0--0--0----0-0--0--0----0-0--0--0----1-1--1--1-------------------

Bridge 2
Eb----------------------------------------------------------------------
Bb----------------------------------------------------------------------
Gb----------------------------------------------------------------------
Db--0-0--0--0--------0--1-----0-0--0--0--------0--1---------------------
Ab--0-0--0--0---7----0--1-----0-0--0--0---7----0--1---------------------
Db--0-0--0--0--------0--1-----0-0--0--0--------0--1---------------------

(continued Bridge 2)
Eb----------------------------------------------------------------------
Bb----------------------------------------------------------------------
Gb---------------------------------------------------------------------- x2
Db--0-0--0--0--------0--1-----1-1--1--1----1-1--1--1----1-1--1--1-------
Ab--0-0--0--0---7----0--1-----0-0--0--0----1-1--1--1----1-1--1--1-------
Db--0-0--0--0--------0--1-----0-0--0--0----1-1--1--1----1-1--1--1-------

Outro
Eb----------------------------------------------------------------------
Bb----------------------------------------------------------------------
Gb----------------------------------------------------------------------
Db--0-0--0--0----0-0--0--0----0-0--0--0----0-0--0--0--------------------
Ab--0-0--0--0----0-0--0--0----0-0--0--0----0-0--0--0--------------------
Db--0-0--0--0----0-0--0--0----0-0--0--0----0-0--0--0--------------------
Comments