Linkin Park - Forgotten Chords & Tabs

 

Forgotten Chords & Tabs

Linkin Park Chords & Tabs

Version: 7 Type: Tab 0 ratings
1 star 2 stars 3 stars 4 stars 5 stars
comments

Forgotten Tab

Pre-Chorus
eb---------------------------------------------------------
Bb---------------------------------------------------------
Gb---------------------------------------------------------
Db--3-2--x-x-2-x-x-2-2-x-x--3-2--x-x--2------<5>-----------
Ab--3-2--x-x-2-x-x-2-2-x-x--3-2--x-x--2--<5>---------------
Db--3-2--x-x-2-x-x-2-2-x-x--3-2--x-x--2--------------------
("From the top to the bottom...")

(continued)                            end on
eb---------------------------------------|-----------------
Bb---------------------------------------|-----------------
Gb---------------------------------------|-----------------
Db--3-2--x-x-2-x-x-2-2-x-x--3-2--x-x--2--|--3-3--2--5------
Ab--3-2--x-x-2-x-x-2-2-x-x--3-2--x-x--2--|--3-3--2--5------
Db--3-2--x-x-2-x-x-2-2-x-x--3-2--x-x--2--|--3-3--2--5------

Verse
eb------7-------------------------7------------------------
Bb----------10-------------8----------10-----------------8-
Gb----9---9----9---9-----9------9---9----9---9--9p7--------
Db--7------------7----10------7------------7--------10-9---
Ab---------------------------------------------------------
Db---------------------------------------------------------
("There's a place so dark...")
[ Tab from: http://www.guitartabs.cc/tabs/l/linkin_park/forgotten_tab_ver_7.html ]
Chorus
eb---------------------------------------------------------
Bb---------------------------------------------------------
Gb---------9--9/10-----------------------------------------
Db--7--7-7-9--9/10-10--10-10-10--9-9/10--------------------
Ab--7--7-7-7--7/-8-10--10-10-10--9-9/10--------------------
Db--7--7-7---------10--10-10-10--9-9/10--------------------
("In the memory...")

Riff 1
eb--12-(x10)----------------------12--12-------------------
Bb---------------------------------------------------------
Gb---------------------------------------------------------
Db-----------3-3-3-3-3--2-2--5-5---------3-3-3-3-3--2-2----
Ab-----------3-3-3-3-3--2-2--5-5---------3-3-3-3-3--2-2----
Db-----------3-3-3-3-3--2-2--5-5---------3-3-3-3-3--2-2----
("Now you got me caught in the act...")

Bridge
eb---------------------------------------------------------
Bb---------------------------------------------------------
Gb---------------------------------------------------------
Db--5-5--7-7-7-7--5-/-7--3-3-3-3-3--2-2--------------------
Ab--5-5--7-7-7-7--5-/-7--3-3-3-3-3--2-2--------------------
Db--5-5--7-7-7-7--5-/-7--3-3-3-3-3--2-2--------------------

Riff 2
eb---------------------------------------------------------
Bb---------------------------------------------------------
Gb---------------------------------------------------------
Db--3--3-3-3--2--2-2-2--5-5-5------------------------------
Ab--3--3-3-3--2--2-2-2--5-5-5------------------------------
Db--3--3-3-3--2--2-2-2--5-5-5------------------------------

Created by Ace, http://gamecity.web1000.com
Comments