Linkin Park - Forgotten Chords & Tabs

 

Forgotten Chords & Tabs

Linkin Park Chords & Tabs

Version: 4 Type: Tab 0 ratings
1 star 2 stars 3 stars 4 stars 5 stars
comments

Forgotten Tab

#----------------------------------PLEASE NOTE--------------------------------#
#This file is the author's own work and represents their interpretation of the#
#song. You may only use this file for private study, scholarship, or research.#
#-----------------------------------------------------------------------------#
#-- File created with Instab - http://www.pconline.com/~smcarey/instab.html --#
#-----------------------------------------------------------------------------#

Author/Artist: Linkin Park
Title: Forgotten
Album: Hybrid Theory
Transcribed by: Moonie
Email: Foley92986@aol.com

Drop D tuning

----------------------------7-|--------------------------
--------------------------7---|--------------------------
------------------------------|--------------------------
-3-2-2-2-2-2-2-2-2--3-2-2-----|-3-2-2-2-2-2-2-2-2--3-2-2-
-3-2-2-2-2-2-2-2-2--3-2-2-----|-3-2-2-2-2-2-2-2-2--3-2-2-
-3-2-2-2-2-2-2-2-2--3-2-2-----|-3-2-2-2-2-2-2-2-2--3-2-2-
 RIFF 1 (INTRO/VERSE 1)                                                       

----------------------------7-|--------------------------------
--------------------------7---|--------------------------------
------------------------------|--------------------------------
-3-2-2-2-2-2-2-2-2--3-2-2-----|-3-2-2-2-2-2-2-2-2--3-3-2-2-5-5-
-3-2-2-2-2-2-2-2-2--3-2-2-----|-3-2-2-2-2-2-2-2-2--3-3-2-2-5-5-
-3-2-2-2-2-2-2-2-2--3-2-2-----|-3-2-2-2-2-2-2-2-2--3-3-2-2-5-5-
 RIFF 2  (INTRO/VERSE 2)                                                      

----------------------------------
----------------------------------
-------16----14----------------12-
----14----14----14----14----12----
-12----------------12----15-------
----------------------------------
 RIFF 3 (VERSE 1)                                                             
[ Tab from: http://www.guitartabs.cc/tabs/l/linkin_park/forgotten_tab_ver_4.html ]
-------------------------------------
-------------------------------------
-------16----14-------------------12-
----14----14----14----14-12----12----
-12----------------12-------15-------
-------------------------------------
 RIFF 4 (VERSE 2)                                                             

--------------------------------
--------------------------------
-----9-10-10--------------------
-7-7-9-10-10-10-10-9-10-10-10-7-
-7-7-7-8--8--10-10-9-10-10-10-7-
-7-7---------10-10-9-10-10-10-7-
 RIFF 5 (CHORUS 1)                                                            

---------------------------------
---------------------------------
-----9-10-10---------------------
-7-7-9-10-10-10-10-9-10-10-10-10-
-7-7-7-8--8--10-10-9-10-10-10-10-
-7-7---------10-10-9-10-10-10-10-
 RIFF 6 (CHORUS 2)                                                            

-------------------------
-------------------------
-------------------------
-------------------------
-------------------------
-7-7-5-7-3-3-3-3-3-3-2-5-
 RIFF 7 (MID-SECTION 1)                                                       

-------------------------
-------------------------
-------------------------
---------3-3-3-3-3-3-2-5-
---------3-3-3-3-3-3-2-5-
-7-7-5-7-3-3-3-3-3-3-2-5-
 RIFF 8 (MID-SECTION 2)                                                       

-------------------------
-------------------------
-------------------------
-7-7-5-7-3-3-3-3-3-3-2-5-
-7-7-5-7-3-3-3-3-3-3-2-5-
-7-7-5-7-3-3-3-3-3-3-2-5-
 RIFF 9 (MID-SECTION 3)                                                       

 

ORDER:
RIFF 1
RIFF 2
RIFF 3
RIFF 4
RIFF 3 
RIFF 4
RIFF 2
RIFF 5 (x3)
RIFF 6
RIFF 3 (x2)
RIFF 4
RIFF 3 
RIFF 4
RIFF 1
RIFF 2
RIFF 5 (x3)
RIFF 6
RIFF 7
RIFF 8 (x2)
RIFF 9 (x4)
RIFF 5 (x3)
RIFF 6 
Comments