Linkin Park - Forgotten Chords & Tabs

 

Forgotten Chords & Tabs

Linkin Park Chords & Tabs

Version: 3 Type: Tab 0 ratings
1 star 2 stars 3 stars 4 stars 5 stars
comments

Forgotten Tab

FORGOTTEN

by Linkin' Park
tabbed by Simon Visser   any comments can be sent to: roadlash@hotmail.com

hey this was the only song of the latest album wich wasn't tabbed yet. So here it is...

For rythms and timings just listen to the song and i'm sure you will figure it out.
It's a easy song and very fun to play. (evenmore if you're playing it with a whole band)

ok here we go:

DROPPED D tuning


INTRO:
DISTORTION
	 
e ---------------------------------------------------------------
B ---------------------------------------------------------------
G ---------------------------------------------------------------
D --2--1-1-1-1---2--1-1---------5-----2--1-1-1-1---2--1-1--------     
A --2--1-1-1-1---2--1-1-------5-------2--1-1-1-1---2--1-1--------
D --2--1-1-1-1---2--1-1---------------2--1-1-1-1---2--1-1--------
			     |___|= flageolet

e ---------------------------------------------------------------------
B ---------------------------------------------------------------------
G ---------------------------------------------------------------------
D --2--1-1-1-1---2--1-1---------5-----2--1-1-1-1---2-2----1----4---5---     
A --2--1-1-1-1---2--1-1-------5-------2--1-1-1-1---2-2----1----4---5---
D --2--1-1-1-1---2--1-1---------------2--1-1-1-1---2-2----1----4---5---
			     |___|= flageolet




VERSE:
CLEAR SOUND with a little delay

e ----------------------------------
B ---------11--9--------------------
G ---------------11--8--(8)-----11--
D --------------------------11------      repeat this 4 times
A -----11---------------------------
D ----------------------------------




CHORUS 1:
DISTORTION

e ---------------------------------------------------------------------
B ---------------------------------------------------------------------
G ---------------------------------------------------------------------
D --2--1-1-1-1---2--1-1---------5-----2--1-1-1-1---2-2----1----4---5---     
A --2--1-1-1-1---2--1-1-------5-------2--1-1-1-1---2-2----1----4---5---
D --2--1-1-1-1---2--1-1---------------2--1-1-1-1---2-2----1----4---5---
			     |___|= flageolet

e ------------------------------------------
B ------------------------------------------
G --------9-9----4-4---3/4------------------
D --6-6---9-9----4-4---3/4------------------     repeat this 4 times    
A --6-6---7-7----2-2---1/2------------------
D --6-6-------------------------------------
                      |___|= slide




VERSE:
CLEAR SOUND with a little delay

e ----------------------------------
B ---------11--9--------------------
G ---------------11--8--(8)-----11--
D --------------------------11------      repeat this 5 times
A -----11---------------------------
D ----------------------------------



[ Tab from: http://www.guitartabs.cc/tabs/l/linkin_park/forgotten_tab_ver_3.html ]
CHORUS 2:
DISTORTION
	 
e ---------------------------------------------------------------
B ---------------------------------------------------------------
G ---------------------------------------------------------------
D --2--1-1-1-1---2--1-1---------5-----2--1-1-1-1---2--1-1--------     
A --2--1-1-1-1---2--1-1-------5-------2--1-1-1-1---2--1-1--------
D --2--1-1-1-1---2--1-1---------------2--1-1-1-1---2--1-1--------
			     |___|= flageolet

e ---------------------------------------------------------------------
B ---------------------------------------------------------------------
G ---------------------------------------------------------------------
D --2--1-1-1-1---2--1-1---------5-----2--1-1-1-1---2-2----1----4---5---     
A --2--1-1-1-1---2--1-1-------5-------2--1-1-1-1---2-2----1----4---5---
D --2--1-1-1-1---2--1-1---------------2--1-1-1-1---2-2----1----4---5---
			     |___|= flageolet

e ------------------------------------------
B ------------------------------------------
G --------9-9----4-4---3/4------------------
D --6-6---9-9----4-4---3/4------------------     repeat this 4 times    
A --6-6---7-7----2-2---1/2------------------
D --6-6-------------------------------------
                      |___|= slide



BRIDGE:

e ------------------------------------------
B ------------------------------------------
G ------------------------------------------
D --2-2-2-2-2-2----1--4--6------------------
A --2-2-2-2-2-2----1--4--6------------------
D --2-2-2-2-2-2----1--4--6------------------
                      
e ----------------------------------------------------
B ----------------------------------------------------
G ----------------------------------------------------
D --2-2-2-2-2-2----1--4--6-6-6--4--6--2-2-2--1--4-----
A --2-2-2-2-2-2----1--4--6-6-6--4--6--2-2-2--1--4-----
D --2-2-2-2-2-2----1--4--6-6-6--4--6--2-2-2--1--4-----

e -------------------------------------------------------------------------------------------
B -------------------------------------------------------------------------------------------
G -------------------------------------------------------------------------------------------
D -----6-6-6--4--6--2-2-2--1--4-----6-6-6--4--6--2-2-2--1--2-2-2-2-2-2---4--1-1-1-1--4-4-----     
A -----6-6-6--4--6--2-2-2--1--4-----6-6-6--4--6--2-2-2--1--2-2-2-2-2-2---4--1-1-1-1--4-4-----
D -----6-6-6--4--6--2-2-2--1--4-----6-6-6--4--6--2-2-2--1--2-2-2-2-2-2---4--1-1-1-1--4-4-----


CHORUS 3:
DISTORTION

e ------------------------------------------
B ------------------------------------------
G --------9-9----4-4---3/4------------------
D --6-6---9-9----4-4---3/4------------------     repeat this 8 times; the last time played without distortion   
A --6-6---7-7----2-2---1/2------------------
D --6-6-------------------------------------
                      |___|= slide







Comments