Linkin Park - Forgotten Chords & Tabs

 

Forgotten Chords & Tabs

Linkin Park Chords & Tabs

Version: 4 Type: Bass Tab 0 ratings
1 star 2 stars 3 stars 4 stars 5 stars
comments

Forgotten Bass Tab

From the top to the bottom.....
[-------------------------------------------------]
[-------------------------------------------------]
[-------------------------------------------------]
[-------------------------------------------------]
[--54-4-4-4444--54-4--------54-4-4-4444--54-4-4/7-]

[ Tab from: http://www.guitartabs.cc/tabs/l/linkin_park/forgotten_btab_ver_4.html ]
Its a place so dark.....
[-----------------------]
[------------------4-4--]
[----6-7-6-2-22---------]
[-44------------4-2-2---]
[-----------------------]


In the memory you'll find me.....
[--------------------------]
[--------------------------]
[------6/7-7---------------]
[-4-44-------77-7-6/777-44-]
[--------------------------]



Now you gonna cut me out....
[---------------------]
[---------------------]
[---------------------]
[-4-4-2-4-------------]
[---------5-55-44-54--]
Comments