Linkin Park - Forgotten Chords & Tabs

 

Forgotten Chords & Tabs

Linkin Park Chords & Tabs

Version: 3 Type: Bass Tab 0 ratings
1 star 2 stars 3 stars 4 stars 5 stars
comments

Forgotten Bass Tab

Band:Linkin Park
Song:Forgotten
Album:Hybrid Theory
Tabbed by:Benji

[ Tab from: http://www.guitartabs.cc/tabs/l/linkin_park/forgotten_btab_ver_3.html ]
Intro & Pre-Chorus:
G|------------------------------|
D|------------------------------|
A|------------------------------|
E|-1-0--0--0-0-0--1-0--0--0-0-0-|
(Not sure if thats the exact rhythm, but just mess around with it)

Verse and Chorus:
G|---------------5------------|
D|---2-2h3p2---5--------------|
A|-0---------3----------------|
E|-----------------3-3--3-3-3-|
(I'm not sure of the exact rhythm on those last 3's either but its easy to pick up)
Comments