Linkin Park - Figure 09 Chords & Tabs

 

Figure 09 Chords & Tabs

Linkin Park Chords & Tabs

Version: 4 Type: Tab 0 ratings
1 star 2 stars 3 stars 4 stars 5 stars
comments

Figure 09 Tab

-----------------------------------------------------------------------------
			     SONG NAME - Band Name
-----------------------------------------------------------------------------
Tabbed by: Shifty
Email: av_Shifty_lp@hotmail.com

Tuning: Standard


[Intro 00:04 - 00:14]
-|-------------------------------------------------------------------------|-
-|-------------------------------------------------------------------------|-
-|-7---10-7---10-7---10-7/8-7/8-8-7/8-7---10-7---10-7---10-----------------|-
-|-x---x--x---x--x---x--x/x-x/x-x-x/x-x---x--x---x--x---x--0h1-1-1-1-1-0h1-|-
-|-5---8--5---8--5---8--5/6-5/6-6-5/6-5---8--5---8--5---8--0h1-1-1-1-1-0h1-|-
-|---0------0------0--------------------0------0------0----0h1-1-1-1-1-0h1-|-
Play Once


[Intro Con't 00:14 - 00:24]
-|------------------------------------------|-
-|------------------------------------------|-
-|------------------------------------------|-
-|-0----5--0----5--0----5--0h1-1-1-1-1-0h1--|-
-|-0-*5-3--0-*5-3--0-*5-3--0h1-1-1-1-1-0h1--|-
-|-0-*5-3--0-*5-3--0-*5-3--0h1-1-1-1-1-0h1--|-
Play Twice


[Verse 00:24 - 00:34] Nothing ever stops...
-|--------------------------------------------|-
-|--------------------------------------------|-
-|--------------------------------------------|-
-|-0--------0--------0--------0h1-1-1-1-1-0h1-|-
-|-0-*5-----0-*5-----0-*5-----0h1-1-1-1-1-0h1-|-
-|-0-*5-----0-*5-----0-*5-----0h1-1-1-1-1-0h1-|-
Play Twice


[Verse Con't 00:34 - 00:44] It's from the infinite words...
-|------------------------------------------|-
-|------------------------------------------|-
-|------------------------------------------|-
-|-0----5--0----5--0----5--0h1-1-1-1-1-0h1--|-
-|-0-*5-3--0-*5-3--0-*5-3--0h1-1-1-1-1-0h1--|-
-|-0-*5-3--0-*5-3--0-*5-3--0h1-1-1-1-1-0h1--|-
Play Twice


[Pre-Chorus 00:44 - 00:47]
-|---------------------------|-
-|---------------------------|-
-|---------------------------|-
-|-0--0-8--0--0-8--0--0-8--0-|-
-|-0--0-8--0--0-8--0--0-8--0-|-
-|-0--0-8--0--0-8--0--0-8--0-|-
Play once


[Chorus 00:49 - 01:03] You've become a part of me...
-|------------------------------------------------------|-
-|------------------------------------------------------|-
-|------------------------------------------------------|-
-|-0--0-0--0-10-10-10-10-10--0--3-3-3-3-3--5--5-7-7-7-7-|-
-|-0--0-0--0-8--8--8--8--8---0--3-3-3-3-3--5--5-7-7-7-7-|-
-|-0--0-0--0-8--8--8--8--8---0--3-3-3-3-3--5--5-7-7-7-7-|-
Play three times


[Chorus Con't 01:03 - 01:08] Giving up a part of me...
-|--------------------------------------------------|-
-|--------------------------------------------------|-
-|--------------------------------------------------|-
-|-0--0-0--0-10-10-10-10-10--0--3-3-3-3-3--7-7--1-1-|-
-|-0--0-0--0-8--8--8--8--8---0--3-3-3-3-3--7-7--1-1-|-
-|-0--0-0--0-8--8--8--8--8---0--3-3-3-3-3--7-7--1-1-|-
Play once


[Pre-Verse 01:08 - 01:13] You...
-|------------------------------------------|-
-|------------------------------------------|-
-|------------------------------------------|-
-|-0----5--0----5--0----5--0h1-1-1-1-1-0h1--|-
-|-0-*5-3--0-*5-3--0-*5-3--0h1-1-1-1-1-0h1--|-
-|-0-*5-3--0-*5-3--0-*5-3--0h1-1-1-1-1-0h1--|-
Play once


[Verse 01:13 - 01:23] Hearing your name...
-|--------------------------------------------|-
-|--------------------------------------------|-
-|--------------------------------------------|-
-|-0--------0--------0--------0h1-1-1-1-1-0h1-|-
-|-0-*5-----0-*5-----0-*5-----0h1-1-1-1-1-0h1-|-
-|-0-*5-----0-*5-----0-*5-----0h1-1-1-1-1-0h1-|-
Play Twice


[Verse Con't 01:23 - 01:33] And I knew as they escaped away...
-|------------------------------------------|-
-|------------------------------------------|-
-|------------------------------------------|-
-|-0----5--0----5--0----5--0h1-1-1-1-1-0h1--|-
-|-0-*5-3--0-*5-3--0-*5-3--0h1-1-1-1-1-0h1--|-
-|-0-*5-3--0-*5-3--0-*5-3--0h1-1-1-1-1-0h1--|-
Play Twice


[Pre-Chorus 01:33 - 01:36] Never goes away...
-|---------------------------|-
-|---------------------------|-
-|---------------------------|-
-|-0--0-8--0--0-8--0--0-8--0-|-
-|-0--0-8--0--0-8--0--0-8--0-|-
-|-0--0-8--0--0-8--0--0-8--0-|-
Play once


[Verse 01:37 - 01:52] You've become a part of me...
-|------------------------------------------------------|-
-|------------------------------------------------------|-
-|------------------------------------------------------|-
-|-0--0-0--0-10-10-10-10-10--0--3-3-3-3-3--5--5-7-7-7-7-|-
-|-0--0-0--0-8--8--8--8--8---0--3-3-3-3-3--5--5-7-7-7-7-|-
-|-0--0-0--0-8--8--8--8--8---0--3-3-3-3-3--5--5-7-7-7-7-|-
Play three times

[ Tab from: http://www.guitartabs.cc/tabs/l/linkin_park/figure_09_tab_ver_4.html ]
[Verse Con't 01:52 - 01:57] Giving up a part of me...
-|--------------------------------------------------|-
-|--------------------------------------------------|-
-|--------------------------------------------------|-
-|-0--0-0--0-10-10-10-10-10--0--3-3-3-3-3--7-7--1-1-|-
-|-0--0-0--0-8--8--8--8--8---0--3-3-3-3-3--7-7--1-1-|-
-|-0--0-0--0-8--8--8--8--8---0--3-3-3-3-3--7-7--1-1-|- 
Play once


[Verse Con't 01:57 - 01:59] You...
-|---------------------------------|-
-|---------------------------------|-
-|---------------------------------|-
-|-1-1-1-1-1-1-1-1-1-1-1-1-1-1-1-1-|-
-|-1-1-1-1-1-1-1-1-1-1-1-1-1-1-1-1-|-
-|-1-1-1-1-1-1-1-1-1-1-1-1-1-1-1-1-|-
Play once


[Pre-Bridge 01:59 - 02:09] Never goes away...
-|-------------------------------------------------------------------------|-
-|-------------------------------------------------------------------------|-
-|-7---10-7---10-7---10-7/8-7/8-8-7/8-7---10-7---10-7---10-----------------|-
-|-x---x--x---x--x---x--x/x-x/x-x-x/x-x---x--x---x--x---x--0h1-1-1-1-1-0h1-|-
-|-5---8--5---8--5---8--5/6-5/6-6-5/6-5---8--5---8--5---8--0h1-1-1-1-1-0h1-|-
-|---0------0------0--------------------0------0------0----0h1-1-1-1-1-0h1-|-
Play once


[Bridge 02:09 - 02:14] Gimme' my space back...
-|------------------------------------------------|-
-|------------------------------------------------|-
-|------------------------------------------------|-
-|-1--0--0--0-0-0-1-3------1--0--0--0-0-0-1-3-----|-
-|-1--0--0--0-0-0-1-3--*9--1--0--0--0-0-0-1-3--*5-|-
-|-1--0--0--0-0-0-1-3--*9--1--0--0--0-0-0-1-3--*5-|-
PM.... PM....
Play once


[Bridge Con't 02:14 - 02:19] I've kept it in...
-|----------------------------------------------------|-
-|----------------------------------------------------|-
-|----------------------------------------------------|-
-|-1--0--0--0-0-0-1-3------1--0--0--0-0-0-1-3--0-0--0-|-
-|-1--0--0--0-0-0-1-3--*9--1--0--0--0-0-0-1-3--0-0--0-|-
-|-1--0--0--0-0-0-1-3--*9--1--0--0--0-0-0-1-3--0-0--0-|-
PM.... PM.... PM....
Play once


[Bridge Con't 02:19 - 02:24] Gimme' my space back...
-|------------------------------------------------|-
-|------------------------------------------------|-
-|------------------------------------------------|-
-|-1--0--0--0-0-0-1-3------1--0--0--0-0-0-1-3-----|-
-|-1--0--0--0-0-0-1-3--*9--1--0--0--0-0-0-1-3--*5-|-
-|-1--0--0--0-0-0-1-3--*9--1--0--0--0-0-0-1-3--*5-|-
PM.... PM.... 
Play once


[Bridge Con't 02:24 - 02:29] I've kept it in... 
-|-----------------------------------------------------|-
-|-----------------------------------------------------|-
-|-----------------------------------------------------|-
-|-1--0--0--0-0-0-1-3------1--0--0--0-0-0-1-3--0-0-0-0-|-
-|-1--0--0--0-0-0-1-3--*9--1--0--0--0-0-0-1-3--0-0-0-0-|-
-|-1--0--0--0-0-0-1-3--*9--1--0--0--0-0-0-1-3--0-0-0-0-|-
PM.... PM.... PM.....
Play once


[Verse 02:29 - 02:43] You've become a part of me...
-|------------------------------------------------------|-
-|------------------------------------------------------|-
-|------------------------------------------------------|-
-|-0--0-0--0-10-10-10-10-10--0--3-3-3-3-3--5--5-7-7-7-7-|-
-|-0--0-0--0-8--8--8--8--8---0--3-3-3-3-3--5--5-7-7-7-7-|-
-|-0--0-0--0-8--8--8--8--8---0--3-3-3-3-3--5--5-7-7-7-7-|-
Play 3 times


[Verse Con't 02:43 - 02:48] Giving up a part of me...
-|--------------------------------------------------|-
-|--------------------------------------------------|-
-|--------------------------------------------------|-
-|-0--0-0--0-10-10-10-10-10--0--3-3-3-3-3--7-7--7-7-|-
-|-0--0-0--0-8--8--8--8--8---0--3-3-3-3-3--7-7--7-7-|-
-|-0--0-0--0-8--8--8--8--8---0--3-3-3-3-3--7-7--7-7-|-
Play once


[Verse Con't 02:48 - 03:03] You...
-|--------------------------------------------------|-
-|--------------------------------------------------|-
-|--------------------------------------------------|-
-|-0--0-0--0-10-10-10-10-10--0--3-3-3-3-3--5--5-7-7-|-
-|-0--0-0--0-8--8--8--8--8---0--3-3-3-3-3--5--5-7-7-|-
-|-0--0-0--0-8--8--8--8--8---0--3-3-3-3-3--5--5-7-7-|-
Play three times


[Verse Con't 03:03 - 03:08] Giving up a part of me...
-|--------------------------------------------------|-
-|--------------------------------------------------|-
-|--------------------------------------------------|-
-|-0--0-0--0-10-10-10-10-10--0--3-3-3-3-3--7-7--1-1-|-
-|-0--0-0--0-8--8--8--8--8---0--3-3-3-3-3--7-7--1-1-|-
-|-0--0-0--0-8--8--8--8--8---0--3-3-3-3-3--7-7--1-1-|-
Play once


[Verse Con't 03:08 - 03:10] You...
-|---------------------------------|-
-|---------------------------------|-
-|---------------------------------|-
-|-1-1-1-1-1-1-1-1-1-1-1-1-1-1-1-1-|-
-|-1-1-1-1-1-1-1-1-1-1-1-1-1-1-1-1-|-
-|-1-1-1-1-1-1-1-1-1-1-1-1-1-1-1-1-|- 
Play once
Comments