Linkin Park - Figure 09 Chords & Tabs

 

Figure 09 Chords & Tabs

Linkin Park Chords & Tabs

Version: 1 Type: Tab 0 ratings
1 star 2 stars 3 stars 4 stars 5 stars
comments

Figure 09 Tab

linkin park
figure 09


Intro
eb-------------------------------------------------------
Bb-------------------------------------------------------
Gb-------------------------------------------------------
Db-------------------------------------------------------
Ab----------8----------8----------8----5h6-5h6---5h6-----
Db---<5>--0-----<5>--0-----<5>--0------------------------

(continued)
eb-------------------------------------------------------
Bb-------------------------------------------------------
Gb-------------------------------------------------------
Db-------------------------------------0h1-1-1-1--0h1----
Ab----------8----------8----------8----0h1-1-1-1--0h1----
Db---<5>--0-----<5>--0-----<5>--0------0h1-1-1-1--0h1----


first riff
eb-------------------------------------------------------
Bb-------------------------------------------------------
Gb-------------------------------------------------------
Db--0-------5---0-------5---0-------5---0h1-1-1-1--0h1---
Ab--0-------3---0-------3---0-------3---0h1-1-1-1--0h1---
Db--0--<5>--3---0--<5>--3---0--<5>--3---0h1-1-1-1--0h1---


Verse
eb--------------------------------------------------------
Bb--------------------------------------------------------
Gb--------------------------------------------------------
Db--0-----------0-----------0-----------0h1-1-1-1--0h1----
Ab--0-----------0-----------0-----------0h1-1-1-1--0h1----
Db--0--<5>------0--<5>------0--<5>------0h1-1-1-1--0h1----

[ Tab from: http://www.guitartabs.cc/tabs/l/linkin_park/figure_09_tab.html ]
secondriff
eb-----------------------------------------------------
Bb-----------------------------------------------------
Gb---------8-----------8----------8-----------8--------
Db--0--0---8----0--0---8---0--0---8----0--0---8--------
Ab--0--0---6----0--0---6---0--0---6----0--0---6--------
Db--0--0--------0--0-------0--0--------0--0------------


Chorus
eb------------------------------------------------
Bb------------------------------------------------
Gb------------------------------------------------
Db--0-0-0-0--8-8-10-8--5-5-5-5--7-7-7--9-9-9------
Ab--0-0-0-0--8-8--8-8--5-5-5-5--7-7-7--9-9-9------
Db--0-0-0-0--8-8--8-8--3-3-3-3--5-5-5--7-7-7------

Post-Chorus
eb-----------------------------------------------------------
Bb-----------------------------------------------------------
Gb-----------------------------------------------------------
Db--0-0-0-0--8-8-10-8--3-3-3-3--5-5--3-3-3-3-3-3-3-3-3-3-3-3-
Ab--0-0-0-0--8-8--8-8--3-3-3-3--5-5--3-3-3-3-3-3-3-3-3-3-3-3-
Db--0-0-0-0--8-8--8-8--3-3-3-3--5-5--1-1-1-1-1-1-1-1-1-1-1-1-


Bridge
eb-----------------------------------------------------------
Bb-----------------------------------------------------------
Gb-----------------------------------------------------------
Db--1--0--x-x-x--0-2-3---4----1--0--x-x-x--0-2-3---0---------
Ab--1--0--x-x-x--0-2-3--------1--0--x-x-x--0-2-3-------------
Db--1--0--x-x-x--0-2-3--------1--0--x-x-x--0-2-3-------------

(continued)
eb-----------------------------------------------------------
Bb-----------------------------------------------------------
Gb-----------------------------------------------------------
Db--1--0--x-x-x--0-2-3---4----1--0--x-x-x--0-2-3--x-x-x------
Ab--1--0--x-x-x--0-2-3--------1--0--x-x-x--0-2-3--x-x-x------
Db--1--0--x-x-x--0-2-3--------1--0--x-x-x--0-2-3--x-x-x------


Intro
Riff 1
Verse
Riff 2
Chorus
Verse
Riff 1
Riff 2
Chorus
Post-Chorus
Riff 2
Bridge
Chorus
Post-Chorus
Comments