Linkin Park - Faint Chords & Tabs

 

Faint Chords & Tabs

Linkin Park Chords & Tabs

Version: 9 Type: Tab 0 ratings
1 star 2 stars 3 stars 4 stars 5 stars
comments

Faint Tab

Intro/chorus

|-------|-----------------------------------|
|-------|-----------------------------------|
|-------|-----------------------------------|
|-------|-----------------------------------|
|--9999-|--0-0---9-9---7-7--7-7---9-9--5-5--|
|--9999-|--0-0---9-9---7-7--7-7---9-9--5-5--|
 |P M |

Verse 
[ Tab from: http://www.guitartabs.cc/tabs/l/linkin_park/faint_tab_ver_9.html ]
|--------------------------------------------------------|
|--------------------------------------------------------|
|--------------------------------------------------------|
|--------------------------------------------------------|
|-------7---------------7-----------------7------5-------|
|-------7---------------7-----------------7------5-------|

Bridge

|--------------------------------------------------------|
|--------------------------------------------------------|
|--------------------------------------------------------|
|--------------------------------------------------------|
|-0--7--5--0--5--0------0--7--5--0--5--0--5--------------|
|-0--7--5--0--5--0------0--7--5--0--5--0--5--------------|	

the second chorus hold 2 counts and then continue with the intro/chorus part
after the bridge, don't play the first 4 (listen and you’ll get it)
Comments