Linkin Park - Faint Chords & Tabs

 

Faint Chords & Tabs

Linkin Park Chords & Tabs

Version: 8 Type: Tab 0 ratings
1 star 2 stars 3 stars 4 stars 5 stars
comments

Faint Tab

   
Tuning: Drop D one step down (Db)
Eb 
Bb 
Gb 
Db 
Ab 
Db 

Violin Intro
Intro/Chorus - Guitar 1
Eb | ------------- |---------------------------------------------------
Bb | ------------- |----------10-10-\-8-8--8-8-8--10-10----------------
Gb | ------7-7-7-7 |---7-7-7---x--x-\-x-x--x-x-x--x---x--10-10-10------
Db | ------x-x-x-x |---x-x-x---7--7-\-5-5--5-5-5--7---7---x--x--x------
Ab | ------5-5-5-5 |---5-5-5------------------------------8--8--8------
Db | ------------- |--------------------------------------------------- (X2)
[ Tab from: http://www.guitartabs.cc/tabs/l/linkin_park/faint_tab_ver_8.html ]
Guitar 2
Eb | ------------------------------------------------------------------------
Bb | ------------------------------------------------------------------------
Gb | ------------------------------------------------------------------------
Db | -0-0-0-0-0-0-0-0-5-5-5-5-5-5-5-5-8-8-8-8-8-8-8-8-5-5-5-7-7-3-3-3--------
Ab | -0-0-0-0-0-0-0-0-3-3-3-3-3-3-3-3-8-8-8-8-8-8-8-8-5-5-5-7-7-3-3-3--------
Db | -0-0-0-0-0-0-0-0-3-3-3-3-3-3-3-3-8-8-8-8-8-8-8-8-5-5-5-7-7-3-3-3--------

Verse
Eb | ---------------------------------------------------------------
Bb | ---------------------------------------------------------------
Gb | ---------------------------------------------------------------
Db | -0--------------------0--------------------0----8-8----10-10---
Ab | -0--------------------0--------------------0----8-8----10-10---
Db | -0--------------------0--------------------0----8-8----10-10---

"No, Hear Me Out Now"
Eb | -------------------------------------------------------
Bb | -------------------------------------------------------
Gb | ----2------------------2-------------------------------
Db | -0--2-3-2-3-2-----0-0--2-3-2-3-2-----------------------
Ab | -0--0-3-2-3-2-----0-0--0-3-2-3-2-----------------------
Db | -0----3-2-3-2-----0-0----3-2-3-2----------------------- (X2)
Comments