Linkin Park - Faint Chords & Tabs

 

Faint Chords & Tabs

Linkin Park Chords & Tabs

Version: 2 Type: Tab 1 rating
1 star 2 stars 3 stars 4 stars 5 stars
comments

Faint Tab

   
Artist: Linkin Park
Title: Faint
Album: Meteora
Transcribed by:Beaver

Tuning: Dropped-C#
C# G# C# F# A# D#

  [Intro 00:11 - 00:14]
-|Brad-----------------|-
-|---------------------|-
-|-------------7-7-7-7-|-
-|-------------x-x-x-x-|-
-|-------------5-5-5-5-|-
-|---------------------|-
 |		       |
 |		       |
-|Mike-----------------|-
-|---------------------|-
-|---------------------|-
-|-0-------------------|-
-|-0-------------------|-
-|-0-------------------|-
   Volume swell(Open chord only)
   Play once


  [Intro Con't 00:14 - 00:28]
-|Brad---------------------------------------------|-
-|-------------------------------------------------|-
-|-7--7--7--14-14-12-12-12-12-12-12-14-14-10-10-10-|-
-|-x--x--x--x--x--x--x--x--x--x--x--x--x--x--x--x--|-
-|-5--5--5--12-12-10-10-10-10-10-10-12-12-8--8--8--|-
-|-------------------------------------------------|-
 |						   |
 |						   |
-|Mike-A-------------------------------------------|-
-|-------------------------------------------------|-
-|-------------------------------------------------|-
-|-0--0--0--0--0--0--0--0--3--3--3--3--3--3--3--3--|-
-|-0--0--0--0--0--0--0--0--3--3--3--3--3--3--3--3--|-
-|-0--0--0--0--0--0--0--0--3--3--3--3--3--3--3--3--|-
 |						   |
-|Mike-B-------------------------------------------|-
-|-------------------------------------------------|-
-|-------------------------------------------------|-
-|-8--8--8--8--8--8--8--8--5--5--5--7--7--3--3--3--|-
-|-8--8--8--8--8--8--8--8--5--5--5--7--7--3--3--3--|-
-|-8--8--8--8--8--8--8--8--5--5--5--7--7--3--3--3--|-
   Play twice

   (To explain, Brad plays his part twice through while
    Mike plays part A the first time and part B the second.
 
    For example, here where it says play twice, Brad would
    play through his section 4 times since it matches with
    each of Mike's sections, and Mike would play through
    A then B, and again A then B.  It saved a lot of space 
    this way, and it shouldn't be too hard to figure out.

    For those visual thinkers out there, it would be like this:
    
    1       .       2       .
    Brad    Brad    Brad    Brad
    Mike A  Mike B  Mike A  Mike B

    Okay, I'm sure you get it by now, i just wanted to be clear :)

  
  [Verse 00:28 - 00:50] A little bit of loneliness...
-|Brad--------------------------------------------|-
-|------------------------------------------------|-
-|----------------------------------------7-7-7-7-|-
-|-0-0------0-0------0-0------8-8---5-5---x-x-x-x-|-
-|-0-0------0-0------0-0------8-8---3-3---5-5-5-5-|-
-|-0-0------0-0------0-0------8-8---5-5-----------|-
   Play Once

[ Tab from: http://www.guitartabs.cc/tabs/l/linkin_park/faint_tab_ver_2.html ]
  [Chorus 00:50 - 01:04] I can't feel...
-|Brad---------------------------------------------|-
-|-------------------------------------------------|-
-|-7--7--7--14-14-12-12-12-12-12-12-14-14-10-10-10-|-
-|-x--x--x--x--x--x--x--x--x--x--x--x--x--x--x--x--|-
-|-5--5--5--12-12-10-10-10-10-10-10-12-12-8--8--8--|-
-|-------------------------------------------------|-
 |						   |
 |						   |
-|Mike-A-------------------------------------------|-
-|-------------------------------------------------|-
-|-------------------------------------------------|-
-|-0--0--0--0--0--0--0--0--3--3--3--3--3--3--3--3--|-
-|-0--0--0--0--0--0--0--0--3--3--3--3--3--3--3--3--|-
-|-0--0--0--0--0--0--0--0--3--3--3--3--3--3--3--3--|-
 |						   |
-|Mike-B-------------------------------------------|-
-|-------------------------------------------------|-
-|-------------------------------------------------|-
-|-8--8--8--8--8--8--8--8--5--5--5--7--7--3--3--3--|-
-|-8--8--8--8--8--8--8--8--5--5--5--7--7--3--3--3--|-
-|-8--8--8--8--8--8--8--8--5--5--5--7--7--3--3--3--|-
   Play Twice


  [Chorus Con't 01:04 - 01:06] 
-|Brad---------------------|-
-|-------------------------|-
-|-10-10-10-10-10-10-10-10-|-
-|-x--x--x--x--x--x--x--x--|-
-|-8--8--8--8--8--8--8--8--|-
-|-------------------------|-
 |			   |
 |			   |
-|Mike---------------------|-
-|-------------------------|-
-|-------------------------|-
-|-3--3--3--3--3--3--3--3--|-
-|-3--3--3--3--3--3--3--3--|-
-|-3--3--3--3--3--3--3--3--|-
   Play once


  [Verse 01:06 - 01:29] A little bit insecure...
-|Brad--------------------------------------------|-
-|------------------------------------------------|-
-|----------------------------------------7-7-7-7-|-
-|-0-0------0-0------0-0------8-8---5-5---x-x-x-x-|-
-|-0-0------0-0------0-0------8-8---3-3---5-5-5-5-|-
-|-0-0------0-0------0-0------8-8---5-5-----------|-
   Play once


  [Chorus 01:29 - 01:43] I can't feel...
-|Brad---------------------------------------------|-
-|-------------------------------------------------|-
-|-7--7--7--14-14-12-12-12-12-12-12-14-14-10-10-10-|-
-|-x--x--x--x--x--x--x--x--x--x--x--x--x--x--x--x--|-
-|-5--5--5--12-12-10-10-10-10-10-10-12-12-8--8--8--|-
-|-------------------------------------------------|-
 |						   |
 |						   |
-|Mike-A-------------------------------------------|-
-|-------------------------------------------------|-
-|-------------------------------------------------|-
-|-0--0--0--0--0--0--0--0--3--3--3--3--3--3--3--3--|-
-|-0--0--0--0--0--0--0--0--3--3--3--3--3--3--3--3--|-
-|-0--0--0--0--0--0--0--0--3--3--3--3--3--3--3--3--|-
 |						   |
-|Mike-B-------------------------------------------|-
-|-------------------------------------------------|-
-|-------------------------------------------------|-
-|-8--8--8--8--8--8--8--8--5--5--5--7--7--3--3--3--|-
-|-8--8--8--8--8--8--8--8--5--5--5--7--7--3--3--3--|-
-|-8--8--8--8--8--8--8--8--5--5--5--7--7--3--3--3--|-
   Play Twice


  [Chorus Con't 01:43 - 01:45]
-|Brad---------------------|-
-|-------------------------|-
-|-10-10-10-10-10-10-10-10-|-
-|-x--x--x--x--x--x--x--x--|-
-|-8--8--8--8--8--8--8--8--|-
-|-------------------------|-
 |			   |
 |			   |
-|Mike---------------------|-
-|-------------------------|-
-|-------------------------|-
-|-3--3--3--3--3--3--3--3--|-
-|-3--3--3--3--3--3--3--3--|-
-|-3--3--3--3--3--3--3--3--|-
   Play Once


  [Bridge 01:45 - 01:59] Here m

Comments