Linkin Park - Faint Chords & Tabs

 

Faint Chords & Tabs

Linkin Park Chords & Tabs

Version: 15 Type: Tab 0 ratings
1 star 2 stars 3 stars 4 stars 5 stars
comments

Faint Tab

   
-----------------------------------------------------------------------------
			     Faint - Linkin Park
-----------------------------------------------------------------------------
Tabbed by: Shifty
Email: av_Shifty_lp@hotmail.com

Tuning: Standard

Intro A (Guitar 1)
(First Time)
e-----------|------------------------------------------------|
B-----------|------------------------------------------------|
G--6-6-6-6--|-6-6-6--13-13--11-11-11-11-11-11--13-13--9-9-9--|
D--x-x-x-x--|-x-x-x--x--x---x--x--x--x--x--x---x--x---x-x-x--| x4
A--4-4-4-4--|-4-4-4--11-11--9--9--9--9--9--9---11-11--7-7-7--|
D-----------|------------------------------------------------|

Intro B (Guitar 2)
e------------------------------------------------------------------|
B------------------------------------------------------------------|
G------------------------------------------------------------------|
D--0-0-0-0-0-0-0--3-3-3-3-3-3-3--7-7-7-7-7-7-7--4-4-4-6-6-2-2-2----| x2
A--0-0-0-0-0-0-0--3-3-3-3-3-3-3--7-7-7-7-7-7-7--4-4-4-6-6-2-2-2----|
D--0-0-0-0-0-0-0--3-3-3-3-3-3-3--7-7-7-7-7-7-7--4-4-4-6-6-2-2-2----|

Verse 1
e----------------------------------------------------------------|
B----------------------------------------------------------------|
G----------------------------------------------------------------|
D--11-11--11-11--11-11--7-7--9-9---------------------------------| x1
A--11-11--11-11--11-11--7-7--9-9---------------------------------|
D--11-11--11-11--11-11--7-7--9-9---------------------------------|
("I am, a little bit of...")

Chorus (Guitar 1)
e-----------|------------------------------------------------------------- |
B-----------|------------------------------------------------------------- |
G--6-6-6-6--|-6-6-6--13-13--11-11-11-11-11-11--13-13--9-9-9--------------- |
D--x-x-x-x--|-x-x-x--x--x---x--x--x--x--x--x---x--x---x-x-x-- x3 --------- |
A--4-4-4-4--|-4-4-4--11-11--9--9--9--9--9--9---11-11--7-7-7--------------- |
D-----------|------------------------------------------------------------- |
|
Chorus (Guitar 2) |
e--------------------------------------------------------------------------- |
B--------------------------------------------------------------------------- |
G--------------------------------------------------------------------------- |
D--0-0-0-0-0-0-0--3-3-3-3-3-3-3--7-7-7-7-7-7-7--4-4-4-6-6-2-2-2---- x1 --|-- |
A--0-0-0-0-0-0-0--3-3-3-3-3-3-3--7-7-7-7-7-7-7--4-4-4-6-6-2-2-2---- |------- |
D--0-0-0-0-0-0-0--3-3-3-3-3-3-3--7-7-7-7-7-7-7--4-4-4-6-6-2-2-2---- |------- |
| |
Chorus (Last time through) (Guitar 1) | |
e------------------------------------------------------------------- <----- |
B-------------------------------------------------------------------------- |
G--6-6-6--13-13--11-11-11-11-11-11--13-13--9-9-9-9-9-9-9-9-9-9-9-9--------- |
D--x-x-x--x--x---x--x--x--x--x--x---x--x---x-x-x-x-x-x-x-x-x-x-x-x-- x1---- |
A--4-4-4--11-11--9--9--9--9--9--9---11-11--7-7-7-7-7-7-7-7-7-7-7-7--------- |
D-------------------------------------------------------------------------- |
v
Chorus (Last time through) (Guitar 2)
e---------------------------------------------------------------------------- |
B---------------------------------------------------------------------------- |
G---------------------------------------------------------------------------- |
D-0-0-0-0-0-0-0-3-3-3-3-3-3-3-7-7-7-7-7-7-7-4-4-4-6-6-2-2-2-2-2-2-2-2-2-2-2-2 |
A-0-0-0-0-0-0-0-3-3-3-3-3-3-3-7-7-7-7-7-7-7-4-4-4-6-6-2-2-2-2-2-2-2-2-2-2-2-2 |
D-0-0-0-0-0-0-0-3-3-3-3-3-3-3-7-7-7-7-7-7-7-4-4-4-6-6-2-2-2-2-2-2-2-2-2-2-2-2 |

Verse 2
e----------------------------------------------------------------|
B----------------------------------------------------------------|
G----------------------------------------------------------------|
D--11-11--11-11--11-11--7-7--9-9---------------------------------| x1
A--11-11--11-11--11-11--7-7--9-9---------------------------------|
D--11-11--11-11--11-11--7-7--9-9---------------------------------|
("I am, a little bit of...")
[ Tab from: http://www.guitartabs.cc/tabs/l/linkin_park/faint_tab_ver_15.html ]
Chorus (Guitar 1)
(First Time)
e-----------|------------------------------------------------------------- |
B-----------|------------------------------------------------------------- |
G--6-6-6-6--|-6-6-6--13-13--11-11-11-11-11-11--13-13--9-9-9--------------- |
D--x-x-x-x--|-x-x-x--x--x---x--x--x--x--x--x---x--x---x-x-x- x3 ---------- |
A--4-4-4-4--|-4-4-4--11-11--9--9--9--9--9--9---11-11--7-7-7--------------- |
D-----------|------------------------------------------------------------- |
|
Chorus (Guitar 2) |
e--------------------------------------------------------------------------- |
B--------------------------------------------------------------------------- |
G--------------------------------------------------------------------------- |
D--0-0-0-0-0-0-0--3-3-3-3-3-3-3--7-7-7-7-7-7-7--4-4-4-6-6-2-2-2---- x1 --|-- |
A--0-0-0-0-0-0-0--3-3-3-3-3-3-3--7-7-7-7-7-7-7--4-4-4-6-6-2-2-2---- |------- |
D--0-0-0-0-0-0-0--3-3-3-3-3-3-3--7-7-7-7-7-7-7--4-4-4-6-6-2-2-2---- |------- |
| |
Chorus (Last time through) (Guitar 1) | |
e------------------------------------------------------------------- <----- |
B-------------------------------------------------------------------------- |
G--6-6-6--13-13--11-11-11-11-11-11--13-13--9-9-9-9-9-9-9-9-9-9-9-9--------- |
D--x-x-x--x--x---x--x--x--x--x--x---x--x---x-x-x-x-x-x-x-x-x-x-x-x-- x1---- |
A--4-4-4--11-11--9--9--9--9--9--9---11-11--7-7-7-7-7-7-7-7-7-7-7-7--------- |
D-------------------------------------------------------------------------- |
v
Chorus (Last time through) (Guitar 2)
e---------------------------------------------------------------------------- |
B---------------------------------------------------------------------------- |
G---------------------------------------------------------------------------- |
D-0-0-0-0-0-0-0-3-3-3-3-3-3-3-7-7-7-7-7-7-7-4-4-4-6-6-2-2-2-2-2-2-2-2-2-2-2-2 |
A-0-0-0-0-0-0-0-3-3-3-3-3-3-3-7-7-7-7-7-7-7-4-4-4-6-6-2-2-2-2-2-2-2-2-2-2-2-2 |
D-0-0-0-0-0-0-0-3-3-3-3-3-3-3-7-7-7-7-7-7-7-4-4-4-6-6-2-2-2-2-2-2-2-2-2-2-2-2 |

Bridge
e----------------------------------------------------------|
B----------------------------------------------------------|
G----------------------------------------------------------|
D--0-6-2-1-2-1--0-0-0-6-2-1-2-1----------------------------| x4
A--0-6-2-1-2-1--0-0-0-6-2-1-2-1----------------------------|
D--0-6-2-1-2-1--0-0-0-6-2-1-2-1----------------------------|
("NO, HEAR ME OUT NOW...")

Chorus (Guitar 1)
e------------------------------------------------------------------------- |
B------------------------------------------------------------------------- |
G--6-6-6--13-13--11-11-11-11-11-11--13-13--9-9-9-------------------------- |
D--x-x-x--x--x---x--x--x--x--x--x---x--x---x-x-x----------- x7 ----------- |
A--4-4-4--11-11--9--9--9--9--9--9---11-11--7-7-7-------------------------- |
D------------------------------------------------------------------------- |
|
Chorus (Guitar 2) |
e--------------------------------------------------------------------------- |
B--------------------------------------------------------------------------- |
G--------------------------------------------------------------------------- |
D--0-0-0-0-0-0-0--3-3-3-3-3-3-3--7-7-7-7-7-7-7--4-4-4-6-6-2-2-2---- x3 --|-- |
A--0-0-0-0-0-0-0--3-3-3-3-3-3-3--7-7-7-7-7-7-7--4-4-4-6-6-2-2-2---- |------- |
D--0-0-0-0-0-0-0--3-3-3-3-3-3-3--7-7-7-7-7-7-7--4-4-4-6-6-2-2-2---- |------- |
| |
Chorus (Last time through) (Guitar 1) | |
e------------------------------------------------------------------- <----- |
B-------------------------------------------------------------------------- |
G--6-6-6--13-13--11-11-11-11-11-11--13-13--9-9-9-9-9-9-9-9-9-7-7-7--------- |
D--x-x-x--x--x---x--x--x--x--x--x---x--x---x-x-x-x-x-x-x-x-x-x-x-x-- x1---- |
A--4-4-4--11-11--9--9--9--9--9--9---11-11--7-7-7-7-7-7-7-7-7-5-5-5--------- |
D-------------------------------------------------------------------------- |
v
Chorus (Last time through) (Guitar 2)
e---------------------------------------------------------------------------- |
B---------------------------------------------------------------------------- |
G---------------------------------------------------------------------------- |
D-0-0-0-0-0-0-0-3-3-3-3-3-3-3-7-7-7-7-7-7-7-4-4-4-6-6-2-2-2-2-2-2-2-2-2-0-0-0 |
A-0-0-0-0-0-0-0-3-3-3-3-3-3-3-7-7-7-7-7-7-7-4-4-4-6-6-2-2-2-2-2-2-2-2-2-0-0-0 |
D-0-0-0-0-0-0-0-3-3-3-3-3-3-3-7-7-7-7-7-7-7-4-4-4-6-6-2-2-2-2-2-2-2-2-2-0-0-0 |
Comments