Linkin Park - Faint Chords & Tabs

 

Faint Chords & Tabs

Linkin Park Chords & Tabs

Version: 5 Type: Bass Tab 0 ratings
1 star 2 stars 3 stars 4 stars 5 stars
comments

Faint Bass Tab

Song: Faint
Artist: Linkin Park
Album: Meteora
Tabbed By: SeepZ (hypercobra69@hotmail.com)
Tuning: Dropped D

This song is so easy and so quick, so enjoy.

INTRO/CHORUS

G---------------------------------------------------------------------------
D---------------------------------------------------------------------------
A-4-4-4-4-4-4-4-4-----------------------------------------------------------
D-----------------2-2-2-2-2-2-2-2-7-7-7-7-7-7-7-7-4-4-4-6-6-6-2-2-----------

VERSE
[ Tab from: http://www.guitartabs.cc/tabs/l/linkin_park/faint_btab_ver_5.html ]
G---------------------------------------------------------------------------
D---------------------------------------------------------------------------
A-44--------------44--------------44--------------------22------------------
D-------------------------------------------------00------------------------

BRIDGE

G---------------------------------------------------------------------------
D---------------------------------------------------------------------------
A-4-6---------4-66----------------------------------------------------------
D-----2-1-2-1------2-1-2-1--------------------------------------------------

ENDING

G---------------------------------------------------------------------------
D---------------------------------------------------------------------------
A---------------------------------------------------------------------------
D-222222-00-----------------------------------------------------------------

STRUCTURE

INTRO/CHORUS X2
VERSE X1
INTRO/CHORUS X2
VERSE X1
INTRO/CHORUS X2
BRIDGE X4
INTRO/CHORUS X4
ENDING X1
Comments