Linkin Park - Easier To Run Chords & Tabs

 

Easier To Run Chords & Tabs

Linkin Park Chords & Tabs

Version: 8 Type: Tab 0 ratings
1 star 2 stars 3 stars 4 stars 5 stars
comments

Easier To Run Tab

Tuning: Drop D - down a semitone

Intro; play clean, repeat 4 times
E|----------------------7--5-----------------|
B|---5--5---8--8--8--7-----------------------|
G|-------------------------------------------|
D|-------------------------------------------|
A|-------------------------------------------|
D|-------------------------------------------|
[ Tab from: http://www.guitartabs.cc/tabs/l/linkin_park/easier_to_run_tab_ver_8.html ]
Chorus; very distorted, repeat twice
E|------------------------|
B|------------------------|
G|------------------------|
D|----2----5----0----4----|
A|----2----3----0----4----|
D|----2----5----0----4----|

Bridge; Very distorted
E|----------------------------------------|
B|----------------------------------------|
G|----------------------------------------|
D|----2----4----5----0----2----4--4--4----|
A|----2----4----5----0----2----4--4--4----|
D|----2----4----5----0----2----4--4--4----|
Comments