Linkin Park - Easier To Run Chords & Tabs

 

Easier To Run Chords & Tabs

Linkin Park Chords & Tabs

Version: 4 Type: Tab 0 ratings
1 star 2 stars 3 stars 4 stars 5 stars
comments

Easier To Run Tab

-------------------------------------------------------------------------------
			     EASIER TO RUN  Linkin Park
-------------------------------------------------------------------------------

Tabbed by: Luis Munoz
Email: LamaGua@aol.com

Tuning: Drop D &  Step Down

x = Mute note

Intro

Eb|---------------------------------------|
Bb|----0x0x------8----8x7x------10------|
Gb|-----------0x--------------0x----------|  4x
Db|---------------------------------------|
Ab|---------------------------------------|
Db|---------------------------------------|

Chorus

Eb|------------------------------------|
Bb|------------------------------------|
Gb|------------------------------------|  2x
Db|----2-------5-------7-------4-------|
Ab|----2-------5-------7-------4-------|
Db|----2-------5-------7-------4-------|

Verse 1

Eb|---------------------------------------|
Bb|----0x0x------8----8x7x------10------|
Gb|-----------0x--------------0x----------|  9x
Db|---------------------------------------|
Ab|---------------------------------------|
Db|---------------------------------------|

Chorus

Eb|------------------------------------|
Bb|------------------------------------|
Gb|------------------------------------|  2x
Db|----2-------5-------7-------4-------|
Ab|----2-------5-------7-------4-------|
Db|----2-------5-------7-------4-------|

Verse 2
[ Tab from: http://www.guitartabs.cc/tabs/l/linkin_park/easier_to_run_tab_ver_4.html ]
Eb|---------------------------------------|
Bb|----0x0x------8----8x7x------10------|
Gb|-----------0x--------------0x----------|  8x
Db|---------------------------------------|
Ab|---------------------------------------|
Db|---------------------------------------|


Bridge

Eb|-------------------------------------|
Bb|-------------------------------------|
Gb|-------------------------------------|
Db|----5-------7-------9-------4--------|
Ab|----5-------7-------9-------4--------|
Db|----5-------7-------9-------4--------|

Eb|-------------------------------------|
Bb|-------------------------------------|
Gb|-------------------------------------|
Db|----5-------7-------7-------7--------|
Ab|----5-------7-------7-------7--------|
Db|----5-------7-------7-------7--------|

Chorus

Eb|------------------------------------|
Bb|------------------------------------|
Gb|------------------------------------|  4x
Db|----2-------5-------7-------4-------|
Ab|----2-------5-------7-------4-------|
Db|----2-------5-------7-------4-------|


Eb|----------------------------------------------------------|
Bb|----------------------------------------------------------|
Gb|----11-11-11-11-11-11-11-11-11-11-11-11-11-11-11-11-------|
Db|-----x--x--x--x--x--x--x--x--x--x--x--x--x--x--x-x-------|
Ab|-----9--9--9--9--9--9--9--9--9--9--9--9--9--9--9--9-------|
Db|----------------------------------------------------------|

Eb|---------|
Bb|---------|
Gb|----7----|
Db|----x----|
Ab|----5----|
Db|---------|


===============================================================================
Comments