Linkin Park - Easier To Run Chords & Tabs

 

Easier To Run Chords & Tabs

Linkin Park Chords & Tabs

Version: 10 Type: Tab 0 ratings
1 star 2 stars 3 stars 4 stars 5 stars
comments

Easier To Run Tab

   
-------------------------------------------------------------------------------
			     Easier to run - Linkin Park
-------------------------------------------------------------------------------
Tabbed by: JaSh
Email: restinpeace1985@hotmail.com

Tuning: Eb-Ab-Db-Gb-Bb-Eb

Intro A [clean tone, chorus FX]	             4x      
eb|--------------------------------------------||
Bb|---12+--12+--------------------7+-----------|| 
Gb|-------------12+----5+-----5+------7+-------||
Db|---------------------------------------7+---||
Ab|--------------------------------------------||
Eb|--------------------------------------------||

Intro B [Distorsion]                                                        2x
eb|---------------------------------------------------------------------------||
Bb|---------------------------------------------------------------------------||
Gb|---9---9---9---9------5---5---5---5------7---7---7---7------4---4---4---4--||
Db|---9---9---9---9------5---5---5---5------7---7---7---7------4---4---4---4--||
Ab|---7---7---7---7------3---3---3---3------5---5---5---5------2---2---2---2--||
Eb|---------------------------------------------------------------------------||

Verse A [clean tone, chorus FX]                9x
eb|--------------------------------------------|| the first time nobody sings
Bb|---12+--12+--------------------7+-----------|| the following 4 times Chester sings
Gb|-------------12+----5+-----5+------7+-------|| the last 4 times Mike sings
Db|---------------------------------------7+---||
Ab|--------------------------------------------||
Eb|--------------------------------------------||

Chorus [Distorsion]                                                         2x
eb|---------------------------------------------------------------------------||
Bb|---------------------------------------------------------------------------||
Gb|---9---9---9---9------5---5---5---5------7---7---7---7------4---4---4---4--||
Db|---9---9---9---9------5---5---5---5------7---7---7---7------4---4---4---4--||
Ab|---7---7---7---7------3---3---3---3------5---5---5---5------2---2---2---2--||
Eb|---------------------------------------------------------------------------||
[ Tab from: http://www.guitartabs.cc/tabs/l/linkin_park/easier_to_run_tab_ver_10.html ]
Verse B [clean tone, chorus FX]                8x
eb|--------------------------------------------||
Bb|---12+--12+--------------------7+-----------|| the first 4 times Chester sings
Gb|-------------12+----5+-----5+------7+-------|| the last 4 times Mike sings
Db|---------------------------------------7+---||
Ab|--------------------------------------------||
Eb|--------------------------------------------||

Bridge [Distorsion]
eb|---------------------------------------------------------------------------|
Bb|---------------------------------------------------------------------------|
Gb|---5---5---5---5------7---7---7---7------9---9---9---9------4---4---4---4--|
Db|---5---5---5---5------7---7---7---7------9---9---9---9------4---4---4---4--|
Ab|---3---3---3---3------5---5---5---5------7---7---7---7------2---2---2---2--|
Eb|---------------------------------------------------------------------------|


|---------------------------------------------------------------------------||
|---------------------------------------------------------------------------||
|---5---5---5---5------7---7---7---7------7-- 7---7---7------7---7---7---7--||
|---5---5---5---5------7---7---7---7------7-- 7---7---7------7---7---7---7--||
|---3---3---3---3------5---5---5---5------5---5---5---5------5---5---5---5--||
|---------------------------------------------------------------------------||

Chorus [Distorsion]                                                         4x
eb|---------------------------------------------------------------------------||
Bb|---------------------------------------------------------------------------||
Gb|---9---9---9---9------5---5---5---5------7---7---7---7------4---4---4---4--||
Db|---9---9---9---9------5---5---5---5------7---7---7---7------4---4---4---4--||
Ab|---7---7---7---7------3---3---3---3------5---5---5---5------2---2---2---2--||
Eb|---------------------------------------------------------------------------||

Outro [Distorsion]
eb|---------------------------------------||
Bb|----------------------12--12--12--12\--||
Gb|---4---4---4---4------x---x---x---x----||
Db|---x---x---x---x------9---9---9---9-\--||
Ab|---2---2---2---2-----------------------||
Eb|---------------------------------------||


| /  slide up
| \  slide down
| h  hammer-on
| p  pull-off
| ~  vibrato
| +  harmonic
| x  Mute note
===============================================================================
Comments