Linkin Park - Easier To Run Chords & Tabs

 

Easier To Run Chords & Tabs

Linkin Park Chords & Tabs

Version: 1 Type: Tab 0 ratings
1 star 2 stars 3 stars 4 stars 5 stars
comments

Easier To Run Tab

   
Artist: Linkin Park
Title: Easier To Run
Album: Meteora
Transcribed by: Beaver

Dropped-C#
C# G# C# F# A# D# 

  [Intro 00:05 - 00:23]
-|BRAD-----------------------|-
-|---------------------------|-
-|-----*12----*12------------|-
-|------------------------*7-|-
-|-*7------------------------|-
-|----------------*9--*7-----|-
  Play four times
  Clean Tone, * denotes natural harmonic


  [Chorus 00:23 - 00:32]
-|BRAD-----------------------------------|-
-|---------------------------------------|-
-|---------------------------------------|-
-|-2--2--2---5--5--5---0--0--0---4--4--4-|-
-|-2--2--2---3--3--3---0--0--0---2--2--2-|-
-|-2--2--2---5--5--5---0--0--0---4--4--4-|-
 |					 |
 |   					 |
-|MIKE-----------------------------------|-
-|---------------------------------------|-
-|-9--9--9---9--9--9---9--9--9---7--7--7-|-
-|-x--x--x---x--x--x---x--x--x---x--x--x-|-
-|-7--7--7---7--7--7---7--7--7---5--5--5-|-
-|---------------------------------------|-
  Play once
  Distortion


  [Chorus Con't 00:32 - 00:42]
-|BRAD---------------------------------------|-
-|-------------------------------------------|-
-|-------------------------------------------|-
-|-2--2--2---5--5--5---0--0--0---4--4--4-----|-
-|-2--2--2---3--3--3---0--0--0---2--2--2-----|-
-|-2--2--2---5--5--5---0--0--0---4--4--4-----|-
 |					     |
 |		Let this ring into verse---V |
-|MIKE---------------------------------------|-
-|-------------------------------------------|-
-|-9--9--9---9--9--9---9--9--9---7--7--7---9-|-
-|-x--x--x---x--x--x---x--x--x---x--x--x---x-|-
-|-7--7--7---7--7--7---7--7--7---5--5--5---7-|-
-|-------------------------------------------|-
  Play once


  [Verse 00:42 - 01:23]
-|BRAD-----------------------|-
-|---------------------------|-
-|-----*12----*12------------|-
-|------------------------*7-|-
-|-*7------------------------|-
-|----------------*9--*7-----|-
  Play 9 times
  Clean tone


  [Chorus 01:23 - 01:32]
-|BRAD-----------------------------------|-
-|---------------------------------------|-
-|---------------------------------------|-
-|-2--2--2---5--5--5---0--0--0---4--4--4-|-
-|-2--2--2---3--3--3---0--0--0---2--2--2-|-
-|-2--2--2---5--5--5---0--0--0---4--4--4-|-
 |					 |
 |   					 |
-|MIKE-----------------------------------|-
-|---------------------------------------|-
-|-9--9--9---9--9--9---9--9--9---9--9--9-|-
-|-x--x--x---x--x--x---x--x--x---x--x--x-|-
-|-7--7--7---7--7--7---7--7--7---7--7--7-|-
-|---------------------------------------|-
  Play once
  Distortion

[ Tab from: http://www.guitartabs.cc/tabs/l/linkin_park/easier_to_run_tab.html ]
  [Chorus Con't 01:32 - 01:41]
-|BRAD---------------------------------------|-
-|-------------------------------------------|-
-|-------------------------------------------|-
-|-2--2--2---5--5--5---0--0--0---4--4--4-----|-
-|-2--2--2---3--3--3---0--0--0---2--2--2-----|-
-|-2--2--2---5--5--5---0--0--0---4--4--4-----|-
 |					     |
 |		Let this ring into verse---V |
-|MIKE---------------------------------------|-
-|-------------------------------------------|-
-|-9--9--9---9--9--9---9--9--7---7--7--7---9-|-
-|-x--x--x---x--x--x---x--x--x---x--x--x---x-|-
-|-7--7--7---7--7--7---7--5--5---5--5--5---7-|-
-|-------------------------------------------|-
  Play once


  [Verse 01:41 - 02:18]
-|BRAD-----------------------|-
-|---------------------------|-
-|-----*12----*12------------|-
-|------------------------*7-|-
-|-*7------------------------|-
-|----------------*9--*7-----|-
  Play eight times.
  Clean tone


  [Bridge 02:18 - 02:26]
-|BRAD-----------------------------------|-
-|---------------------------------------|-
-|---------------------------------------|-
-|-5--5--5---0--0--0---2--2--2---4--4--4-|-
-|-3--3--3---0--0--0---2--2--2---2--2--2-|-
-|-5--5--5---0--0--0---2--2--2---4--4--4-|-
 |					 |
 |					 |
-|MIKE-----------------------------------|-
-|---------------------------------------|-
-|-9--9--9---9--9--9---9--9--9---7--7--7-|-
-|-x--x--x---x--x--x---x--x--x---x--x--x-|-
-|-7--7--7---7--7--7---7--7--7---5--5--5-|-
-|---------------------------------------|-
  Play once
  Distortion


  [Bridge Con't 02:26 - 02:36]
-|BRAD-----------------------------------|-
-|---------------------------------------|-
-|---------------------------------------|-
-|-5--5--5---0--0--0---0--0--0---0--0--0-|-
-|-3--3--3---0--0--0---0--0--0---0--0--0-|-
-|-5--5--5---0--0--0---0--0--0---0--0--0-|-
 |			      Flanger -^ |
 |					 |
-|MIKE-----------------------------------|-
-|---------------------------------------|-
-|-9--9--9---9--9--9---7--7--7---7--7--7-|-
-|-x--x--x---x--x--x---x--x--x---x--x--x-|-
-|-7--7--7---7--7--7---5--5--5---5--5--5-|-
-|---------------------------------------|-
  Play once


  [Chorus 02:36 - 03:12]
-|BRAD-----------------------------------|-
-|---------------------------------------|-
-|---------------------------------------|-
-|-2--2--2---5--5--5---0--0--0---4--4--4-|-
-|-2--2--2---3--3--3---0--0--0---2--2--2-|-
-|-2--2--2---5--5--5---0--0--0---4--4--4-|-
 |					 |
 |   					 |
-|MIKE-----------------------------------|-
-|---------------------------------------|-
-|-9--9--9---9--9--9---9--9--9---7--7--7-|-
-|-x--x--x---x--x--x---x--x--x---x--x--x-|-
-|-7--7--7---7--7--7---7--7--7---5--5--5-|-
-|---------------------------------------|-
  Play four times


  [Chorus Con't 03:12 - 03:20]
-|BRAD--------------------|-
-|------------------------|-
-|----------------------7-|-
-|-4--4--4--------------x-|-
-|-2--2--2--------------5-|-
-|-4--4--4----------------|-
 |		          |
 |      	          |
-|MIKE--------------------|-
-|------------------------|-
-|-11-11-11--11-11-11-----|-
-|-x--x--x---x--x--x------|-
-|-9--9--9---9--9--9------|-
-|------------------------|-
  Play Once
     

END [3:24]


Comments