Linkin Park - Dont Stay Chords & Tabs

 

Dont Stay Chords & Tabs

Linkin Park Chords & Tabs

Version: 7 Type: Tab 0 ratings
1 star 2 stars 3 stars 4 stars 5 stars
comments

Dont Stay Tab

this is dont stay its mostly mine but a little bit from other tabs

Email any thing about my tab to GTyellowjacke4u@netscape.net 

by the way this is kinda funky tunning its umm...C#,Ab,E,B,Gb,B...Enjoy
                         
     intro gets harder as the turn tables come in
C#-------------------------------------------------
Ab-------------------------------------------------
E ------------------------------------------------- 11X
B --333-11-6--7-7-7-10--11-------------------------
Gb--333-11-6--7-7-7-10--11-------------------------
B --333-11-6--7-7-7-10--11-------------------------

Verse 1 & 2 is just a repeat of intro exept when he screams which is...
[ Tab from: http://www.guitartabs.cc/tabs/l/linkin_park/dont_stay_tab_ver_7.html ]
C#-------------------------------------------------
Ab-------------------------------------------------
E -------------------------------------------------
B -6-6-6-6-2-0-0-0-0-0-----------------------------
Gb-4-4-4-6-2-0-0-0-0-0-----------------------------
B -6-6-6-6-2-0-0-0-0-0-----------------------------
chorus
C#-------------------------------------------------
Ab-------------------------------------------------
E -------------------------------------------------
B -0-0-0-0-7-9-10-5-7-3-1-0------------------------
Gb-0-0-0-0-7-9-10-5-7-3-1-0------------------------
B -0-0-0-0-7-9-10-5-7-3-1-0------------------------

C#-------------------------------------------------
Ab-------------------------------------------------
E ---------------5-5-5-5-5/8----------------------- x7
B -0-0-0-1--1-0--x-x-x-x-x-x-----------------------
Gb-0-0-0-1--1-0--3-3-3-3-3/6-----------------------
B -0-0-0-1--1-0------------------------------------

C#----------------------------------------------------
Ab----------------------------------------------------
E ----------------------------------------------------
B -0-0-0-1--1-0-1-1-1--x-x-x--1-1-1-x-x-x-1-1-1-x-x-x-
Gb-0-0-0-1--1-0-1-1-1--x-x-x--1-1-1-x-x-x-1-1-1-x-x-x-
B -0-0-0-1--1-0-1-1-1--x-x-x--1-1-1-x-x-x-1-1-1-x-x-x-

C#-------------------------------------------------
Ab-------------------------------------------------
E -------------------------------------------------
B -0-1-1-1-1-1-1-1---------------------------------
Gb-0-1-1-1-1-1-1-1---------------------------------
B -0-1-1-1-1-1-1-1---------------------------------

im pretty sure its 99% right
Comments