Linkin Park - Dont Stay Chords & Tabs

 

Dont Stay Chords & Tabs

Linkin Park Chords & Tabs

Version: 1 Type: Tab 1 rating
1 star 2 stars 3 stars 4 stars 5 stars
comments

Dont Stay Tab

   
Artist: Linkin Park
Title: Don't Stay
Album: Meteora
Transcribed by: Beaver

Tuning: Dropped-B
B F# B E G# C# 

  [Intro 00:02 - 00:12]					
-|MIKE-------------------------|-    -|BRAD-------------------------------|-
-|-----------------------------|-    -|-----------------------------------|-
-|-----------------------------|-    -|-----------------------------------|-
-|-----------------------------|-    -|-*5.5~x~x~x~x~x~x~x~x~x~x~x~x~*1.5-|-
-|-----------------------------|-    -|-----------------------------------|-
-|-0-0-0-7--3--3/5-5-5-8--7--7-|-    -|-----------------------------------|-
   Play four times		       Play once while Mike plays his part
					Gradually slide the harmonic from
					5.5 to 1.5


  [Intro 00:12 - 00:23]
-|MIKE-&-BRAD------------------|-
-|-----------------------------|-
-|-----------------------------|-
-|-0-0-0-7--3--3/5-5-5-8--7--7-|-
-|-0-0-0-7--3--3/5-5-5-8--7--7-|-
-|-0-0-0-7--3--3/5-5-5-8--7--7-|-
  Play four times


  [Verse 00:23 - 00:31]			  [Verse Con't 00:31 - 00:34]
-|MIKE-&-BRAD------------------|-	-|MIKE-&-BRAD------------------|-
-|-----------------------------|-	-|-----------------------------|-
-|-----------------------------|-	-|-----------------------------|-
-|-----------------------------|-	-|-------------1-1--1-1-1-1-1--|-
-|-----------------------------|-	-|-------------1-1--1-1-1-1-1--|-
-|-0-0-0-7--3--3/5-5-5-8--7--7-|-	-|-0-0-0-7--3--1-1--1-1-1-1-1--|-
   Play three times			  Play once	      PM.....


  [Verse 00:34 - 00:41]			  [Verse Con't 00:41 - 00:44]
-|MIKE-&-BRAD------------------|--	-|MIKE-&-BRAD------------------|-
-|-----------------------------|-	-|-----------------------------|-
-|-----------------------------|-	-|-----------------------------|-
-|-0-0-0-7--3--3/5-5-5-8--7--7-|-	-|-0-0-0-7--3--1-1--1---1-1-1--|-
-|-0-0-0-7--3--3/5-5-5-8--7--7-|-	-|-0-0-0-7--3--1-1--1---1-1-1--|-
-|-0-0-0-7--3--3/5-5-5-8--7--7-|-	-|-0-0-0-7--3--1-1--1---1-1-1--|-
   Play three times			   Play once	        PM...


  [Chorus 00:44 - 01:06]
-|MIKE-&-BRAD--------------------------------|-
-|-------------------------------------------|-
-|-------------------------------------------|-
-|-0--0-0--0-0-7--8--10--5--5-5--5-5-7--3--1-|-
-|-0--0-0--0-0-7--8--10--5--5-5--5-5-7--3--1-|-
-|-0--0-0--0-0-7--8--10--5--5-5--5-5-7--3--1-|-
   Play four times


  [Verse 01:06 - 01:11]
-|MIKE-&-BRAD------------------|-
-|-----------------------------|-
-|-----------------------------|-
-|-0-0-0-7--3--3/5-5-5-8--7--7-|-
-|-0-0-0-7--3--3/5-5-5-8--7--7-|-
-|-0-0-0-7--3--3/5-5-5-8--7--7-|-
   Play twice   


  [Verse Con't 01:11 - 00:19]		  [Verse Con't 01:19 - 01:22]
-|MIKE-&-BRAD------------------|-	-|MIKE-&-BRAD------------------|-
-|-----------------------------|-	-|-----------------------------|-
-|-----------------------------|-	-|-----------------------------|-
-|-----------------------------|-	-|-------------1-1--1-1-1-1-1--|-
-|-----------------------------|-	-|-------------1-1--1-1-1-1-1--|-
-|-0-0-0-7--3--3/5-5-5-8--7--7-|-	-|-0-0-0-7--3--1-1--1-1-1-1-1--|-
   Play three times			  Play once	      PM.....
[ Tab from: http://www.guitartabs.cc/tabs/l/linkin_park/dont_stay_tab.html ]
  [Verse Con't 01:22 - 00:29]		  [Verse Con't 01:29 - 01:34]
-|MIKE-&-BRAD------------------|-	-|MIKE-&-BRAD------------------|-
-|-----------------------------|-	-|-----------------------------|-
-|-----------------------------|-	-|-----------------------------|-
-|-0-0-0-7--3--3/5-5-5-8--7--7-|-	-|-0-0-0-7--3--1-1--1---1-1-1--|-
-|-0-0-0-7--3--3/5-5-5-8--7--7-|-	-|-0-0-0-7--3--1-1--1---1-1-1--|-
-|-0-0-0-7--3--3/5-5-5-8--7--7-|-	-|-0-0-0-7--3--1-1--1---1-1-1--|-
   Play three times			   Play twice	        PM...


  [Chorus 01:34 - 01:55]
-|MIKE-&-BRAD--------------------------------|-
-|-------------------------------------------|-
-|-------------------------------------------|-
-|-0--0-0--0-0-7--8--10--5--5-5--5-5-7--3--1-|-
-|-0--0-0--0-0-7--8--10--5--5-5--5-5-7--3--1-|-
-|-0--0-0--0-0-7--8--10--5--5-5--5-5-7--3--1-|-
   Play four times

  [Bridge 01:55 - 02:06]
-|MIKE-------------------------|-    -|BRAD-------------------------------|-
-|-----------------------------|-    -|-----------------------------------|-
-|-----------------------------|-    -|-----------------------------------|-
-|-----------------------------|-    -|-*5.5~x~x~x~x~x~x~x~x~x~x~x~x~*1.5-|-
-|-----------------------------|-    -|-----------------------------------|-
-|-0-0-0-7--3--3/5-5-5-8--7--7-|-    -|-----------------------------------|-
   Play four times			Play once while Mike plays his part
					Gradually slide the harmonic from
					5.5 to 1.5


					  [Bridge Con't 02:14 - 02:16]
  [Bridge Con't 02:06 - 02:14] 	      Gradually bend up  /-----------\
-|MIKE-&-BRAD------------------|-	-|MIKE-&-BRAD------------------|-
-|-----------------------------|-	-|-----------------------------|-
-|---------------5-5-5-5-5-5/8-|-	-|---------------5-5-5-5-5-5-6-|-
-|-0--0-1-0-1-0--x-x-x-x-x-x/x-|-	-|-0--0-1-0-1-0--x-x-x-x-x-x-x-|-
-|-0--0-1-0-1-0--3-3-3-3-3-3/6-|-	-|-0--0-1-0-1-0--3-3-3-3-3-3-4-|-
-|-0--0-1-0-1-0----------------|-	-|-0--0-1-0-1-0----------------|-
  Play three times			   Play once

  [Bridge Con't 02:16 - 02:25]            [Bridge Con't 02:25 - 02:26]
-|MIKE-&-BRAD------------------|-  	-|MIKE-&-BRAD---|-	
-|-----------------------------|-  	-|--------------|-	
-|---------------5-5-5-5-5-5/8-|-  	-|--------------|-	
-|-0--0-1-0-1-0--x-x-x-x-x-x/x-|-  	-|-0--0-1-0-1-0-|-	
-|-0--0-1-0-1-0--3-3-3-3-3-3/6-|-  	-|-0--0-1-0-1-0-|-	
-|-0--0-1-0-1-0----------------|-  	-|-0--0-1-0-1-0-|-	
   Play three times			  Play once


  [Bridge Con't 02:26 - 02:32]
-|MIKE-&-BRAD----|-	-|MIKE-&-BRAD----|-
-|---------------|-	-|---------------|-
-|---------------|-	-|---------------|-
-|-1-1--1--1-1-1-|-	-|-0h1-1-1-1-1-1-|-
-|-1-1--1--1-1-1-|-	-|-0h1-1-1-1-1-1-|-
-|-1-1--1--1-1-1-|-	-|-0h1-1-1-1-1-1-|-
     	   PM...	  Play once
  Play three times


  [Chorus 02:32 - 02:53]
-|MIKE-&-BRAD--------------------------------|-
-|-------------------------------------------|-
-|-------------------------------------------|-
-|-0--0-0--0-0-7--8--10--5--5-5--5-5-7--3--1-|-
-|-0--0-0--0-0-7--8--10--5--5-5--5-5-7--3--1-|-
-|-0--0-0--0-0-7--8--10--5--5-5--5-5-7--3--1-|-
  Play four times


  [Outro 02:53 - 03:01]			  [Outro Con't 03:01 - 03:04]
-|MIKE-&-BRAD------------------|-	-|MIKE-&-BRAD------------------|-
-|-----------------------------|-	-|-----------------------------|-
-|-----------------------------|-	-|-----------------------------|-
-|-0-0-0-7--3--3/5-5-5-8--7--7-|-	-|-0-0-0-7--3--1-1--1---1-1-1--|-
-|-0-0-0-7--3--3/5-5-5-8--7--7-|-	-|-0-0-0-7--3--1-1--1---1-1-1--|-
-|-0-0-0-7--3--3/5-5-5-8--7--7-|-	-|-0-0-0-7--3--1-1--1---1-1-1--|-
  Play three times			  Play once	        PM...


END [3:07]

Comments