Linkin Park - Dont Stay Chords & Tabs

 

Dont Stay Chords & Tabs

Linkin Park Chords & Tabs

Version: 4 Type: Bass Tab

Dont Stay Bass Tab

   
-------------------------------------------------------------------------------
			     Don't Stay - Linkin Park
-------------------------------------------------------------------------------

Tabbed By : LordShado(Brian Norman)
e-mail: superambush@yahoo.com

Tuning: BEADG(5-String Bass)

Intro/verse
G|----------------------|
D|----------------------|
A|----------------------|
D|----4-000--222-5-444--|
B|000-------------------|x4

Stay Away from me...!
B|1-1-1-11

Verse 1
G|----------------------|
D|----------------------|
A|----------------------|
D|----4-000--222-5-444--|
B|000-------------------|x4

Need you to go!...
B|1-1-1-11

Verse 2
G|-------------------------|
D|-------------------------|
A|-------------------------|
D|----4-5-7-------4--------|
B|0-0-------5--35---3-1-0--| x4

Verse 1
G|----------------------|
D|----------------------|
A|----------------------|
D|----4-000--222-5-444--|
B|000-------------------|x2

Screaming at myself!...
B|1-1-1-11
[ Tab from: http://www.guitartabs.cc/tabs/l/linkin_park/dont_stay_btab_ver_4.html ]
Verse 1
G|----------------------|
D|----------------------|
A|----------------------|
D|----4-000--222-5-444--|
B|000-------------------|x4

Need to be alone!...
B|1-1-1-11x2

Verse 2
G|-----------------------|
D|-----------------------|
A|-----------------------|
D|----4-5-7-------4------|
B|0-0-------5--35---3-1--| x4

I don't need you anymore!...
B|0001-000x8

After the 4th time
B|1/12-0

Waisting me away!
B|11-1-111x3 then B|11111111

Verse 2
G|-------------------------|
D|-------------------------|
A|-------------------------|
D|----4-5-7-------4--------|
B|0-0-------5--35---3-1-0--| x4

Verse 1
G|----------------------|
D|----------------------|
A|----------------------|
D|----4-000--222-5-444--|
B|000-------------------|x4

Outro/End
B|11-1-111

| /  slide up
| \  slide down
| h  hammer-on
| p  pull-off
| ~  vibrato
| +  harmonic
| x  Mute note
===============================================================================