Linkin Park - Crawling Chords & Tabs

 

Crawling Chords & Tabs

Linkin Park Chords & Tabs

Version: 8 Type: Tab 0 ratings
1 star 2 stars 3 stars 4 stars 5 stars
comments

Crawling Tab

   
Title: Crawling
Tunning:Dropped D one half step down
C# G# C# F# A# D#

Intro:(piano part)DJ plays this in different parts of the song.
x|----20--17-------------------------|x
x|------------20-18-17-18------------|x
x|-19--------------------------------|x
x|-----------------------------------|x
x|-----------------------------------|x
x|-----------------------------------|x
[ Tab from: http://www.guitartabs.cc/tabs/l/linkin_park/crawling_tab_ver_8.html ]
then.....    x|-----------------------------------|x
             x|-----------------------------------|x
             x|-----------------------------------|x
             x|-----------------------------------|x
             x|-----------------------------------|x
             x|--10*-10*-10*10*--10*-10*----------|x

Chorus:
x|-----------------------------------|x
x|-----------------------------------|x
x|-----------------------------------|x
x|-0--8--3--10--7--------------------|x  <--- 2 times
x|-0--8--3--10--7--------------------|x
x|-0--8--3--10--7--------------------|x

Verse
Chorus(x4)
Comments