Linkin Park - Crawling Chords & Tabs

 

Crawling Chords & Tabs

Linkin Park Chords & Tabs

Version: 7 Type: Tab 0 ratings
1 star 2 stars 3 stars 4 stars 5 stars
comments

Crawling Tab

   
Artist: Linkin Park
Song: Crawling
Album: Hybrid Theory
Written by: Brad Delson and Mike Shinoda
Tabbed by: Drew Montgomery
E-mail: royalfate@aol.com
Tuning: Drop-D and down 1/2 step(Db-Ab-Db-Gb-Bb-Eb)
Key: / = slide-up

Another great song from the Nu-Metal rulers Linkin Park!!!
Composed of two guitars, this song is very easy and
should not take long to learn. God bless and rock on!!!

DJ Intro(Guitar 1 only)(clean)

Eb|-----20--17-----------------------------------------|
Bb|--------------20--18-17--18-------------------------|
Gb|--19------------------------------------------------|
Db|----------------------------------------------------|
Ab|----------------------------------------------------|
Db|----------------------------------------------------|

Pre-Chorus Fill(Guitar 1 only)(distortion)

Eb|----------------------------------------------------|
Bb|----------------------------------------------------|
Gb|----------------------------------------------------|
Db|--10--10-10--10--10---------------------------------|
Ab|----------------------------------------------------|
Db|----------------------------------------------------|

Chorus 1(Guitar 1)(distortion)

Eb|----------------------------------------------------|
Bb|----------------------------------------------------|
Gb|--11-11-11-11-11-5-5-5-5-5-10-10-10-10-10-9-9-9-----|
Db|--x--x--x--x--x--x-x-x-x-x-x--x--x--x--x--x-x-x-----|
Ab|--9--9--9--9--9--3-3-3-3-3-8--8--8--8--8--7-7-7-----|
Db|----------------------------------------------------|

Eb|----------------------------------------------------|
Bb|----------------------------------------------------|
Gb|--9-9-12-12-12-12-12--------------------------------|
Db|--x-x-x--x--x--x--x---------------------------------|
Ab|--7-7-10-10-10-10-10--------------------------------|
Db|----------------------------------------------------|

Chorus 1(Guitar 2)(distortion)
[ Tab from: http://www.guitartabs.cc/tabs/l/linkin_park/crawling_tab_ver_7.html ]
Eb|----------------------------------------------------|
Bb|----------------------------------------------------|
Gb|----------------------------------------------------|
Db|--0-----8-----3-----/10-----10-----7----------------|
Ab|--0-----8-----3-----/10-----10-----7----------------|
Db|--0-----8-----3-----/10-----10-----7----------------|

Chorus 2(Guitar 1)(distortion)

Eb|----------------------------------------------------|
Bb|----------------------------------------------------|
Gb|--11-11-11-11-11-12-12-12-12-12-10-10-10-10-10------|
Db|--x--x--x--x--x--x--x--x--x--x--x--x--x--x--x-------|
Ab|--9--9--9--9--9--10-10-10-10-10-8--8--8--8--8-------|
Db|----------------------------------------------------|

Eb|----------------------------------------------------|
Bb|----------------------------------------------------|
Gb|--9-9-9-9-9-12-12-12-12-12--------------------------|
Db|--x-x-x-x-x-x--x--x--x--x---------------------------|
Ab|--7-7-7-7-7-10-10-10-10-10--------------------------|
Db|----------------------------------------------------|

Chorus 2(Guitar 2)

Eb|----------------------------------------------------|
Bb|----------------------------------------------------|
Gb|----------------------------------------------------|
Db|--0-----8-----3-----/10-----10-----7----------------|
Ab|--0-----8-----3-----/10-----10-----7----------------|
Db|--0-----8-----3-----/10-----10-----7----------------|

Lyrics:

Chorus

Crawling in my skin
These wounds they will not heal
Fear is how I fall
Confusing what is real

1st Verse

There's something inside me that pulls beneath the surface
Consuming/confusing
This lack of self-control I fear is never-ending
Controlling/I can't seem

Pre-Chorus

To find myself again
My walls are closing in
[Without a sense of confidense and I'm convinced
That there's just to much pressure to take]
I've felt this way before
So insecure

Chorus

2nd Verse

Discomfort endlessly has pulled itself upon me
Distracting/reacting
Against my will I stand beside my own reflection
It's haunting how I can't seem

Pre-Chorus

Chorus

Chorus

1st Verse

Well that's it for this song. Keep on rockin'!!!
Comments