Linkin Park - Crawling Chords & Tabs

 

Crawling Chords & Tabs

Linkin Park Chords & Tabs

Version: 3 Type: Tab 0 ratings
1 star 2 stars 3 stars 4 stars 5 stars
comments

Crawling Tab

Linkin Park - Crawling.

Tabbed by Chris Ford 

E----19-16----------------------
B----------19-17-16-17----------
G-18----------------------------
D-------------------------------
A-------------------------------
E-------------------------------
Repeated 4 times then the singer begins.
[ Tab from: http://www.guitartabs.cc/tabs/l/linkin_park/crawling_tab_ver_3.html ]
Chords for the Chorus:
E-----------------0-----------
B-----------------0-----------
G--10-----6-------1-----8-----
D--11-----7-------2-----9-----
A--11-----7-------2-----9-----
E--9------5-------0-----7-----
....craw-..skin..wounds...heal

Chords during the verse are basically the same

E---------------------------
B---------------------------
G---------------------------
D---------------------------
A-11--7--2--9---------------
E-9---5--0--7---------------

At the end of the song, the chorus is played
with the beginning Riff over the top.

This should be right, if the chorus isn't clear, 
it is meant to show what word (in the lyrics) the chord falls on.
Comments