Linkin Park - Crawling Chords & Tabs

 

Crawling Chords & Tabs

Linkin Park Chords & Tabs

Version: 2 Type: Tab 1 rating
1 star 2 stars 3 stars 4 stars 5 stars
comments

Crawling Tab

CRAWLIN'
By Linkin Park,
From the album, [Hybrid Theory].
Tabbed by James Costick.
E-mail = jxcpunk@hotmail.com

You don't need to tune down for the intro.

Intro

e|---10--7-------------------|
B|---------10--8--7--8-------|
G|-9-------------------------|
D|---------------------------|
A|---------------------------|
E|---------------------------|



Chorus
[ Tab from: http://www.guitartabs.cc/tabs/l/linkin_park/crawling_tab_ver_2.html ]
|---------------------------|
|---------------------------|
|-------7-----------10------|
|-5-----7-----8-----10------|
|-5-----5-----8-----8-------|
|-3-----------6-------------|

"Crawling in my skin........"



Alternate Chorus

|---------------------------|
|---------------------------|
|-------5-----------7-------|
|-3-----3-----5-----7-------|
|-1-----3-----3-----5-------|
|-1-----------3-------------|

"Crawling in my skin........"




    

Comments