Linkin Park - Crawling Chords & Tabs

 

Crawling Chords & Tabs

Linkin Park Chords & Tabs

Version: 4 Type: Bass Tab 0 ratings
1 star 2 stars 3 stars 4 stars 5 stars
comments

Crawling Bass Tab

-------------------------------------------------------------------------------
			     Crawling - Linkin Park
-------------------------------------------------------------------------------

This song is fairly easy to play. You will either need a 5-String bass or tune 
your E string down to C#. 

You start after the little synth intro etc. (If you have heard it you will know
what I mean)

Bass Intro (After Synth Intro)

G|------------------------------------|
D|------------------------------------|
A|-------7--------7-----5-------------|
E|-5--------7----------------5-----0--| Hold this note until the beginning of the chorus.
B|------------------------------------|

Verse

G|----------------------------------------------------------------------|
D|----------------------------------------------------------------------|
A|----------------------2------------------------------------2------2/4-|
E|--------5------0-------------2/4-------------5------0-----------------|
B|-2------------------------------------2-------------------------------| 

Prechorus

G|------------------------------------|
D|------------------------------------|
A|-------7--------7-----5-------------|
E|-5--------7----------------5-----0--| 
B|------------------------------------|

Chorus

G|--------------------------------------------------------------------|
D|--------------------------------------------------------------------|
A|----------------------2------------------------------------2------2-|
E|--------5------0-------------2-------------5------0-----------------|
B|-2------------------------------------2-----------------------------| 


Verse
[ Tab from: http://www.guitartabs.cc/tabs/l/linkin_park/crawling_btab_ver_4.html ]
G|----------------------------------------------------------------------|
D|----------------------------------------------------------------------|
A|----------------------2------------------------------------2------2/4-|
E|--------5------0-------------2/4-------------5------0-----------------|
B|-2------------------------------------2-------------------------------| 

Prechorus

G|------------------------------------|
D|------------------------------------|
A|-------7--------7-----5-------------|
E|-5--------7----------------5-----0--| 
B|------------------------------------|

Chorus

G|--------------------------------------------------------------------|
D|--------------------------------------------------------------------|
A|----------------------2------------------------------------2------2-|
E|--------5------0-------------2-------------5------0-----------------|
B|-2------------------------------------2-----------------------------| 

Verse

G|----------------------------------------------------------------------|
D|----------------------------------------------------------------------|
A|----------------------2------------------------------------2------2/4-|
E|--------5------0-------------2/4-------------5------0-----------------|
B|-2------------------------------------2-------------------------------| 

Prechorus

G|------------------------------------|
D|------------------------------------|
A|-------7--------7-----5-------------|
E|-5--------7----------------5-----0--| 
B|------------------------------------|

Chorus (X2)

G|--------------------------------------------------------------------|
D|--------------------------------------------------------------------|
A|----------------------2------------------------------------2------2-| Hold this note and allow
E|--------5------0-------------2-------------5------0-----------------| to fade out.
B|-2------------------------------------2-----------------------------| 

Phoenix tends to add a few fills which I haven't worked out but these sound simple so my 
advice would be to improvise!

===============================================================================
Comments