Linkin Park - Crawling Chords & Tabs

 

Crawling Chords & Tabs

Linkin Park Chords & Tabs

Version: 2 Type: Bass Tab 0 ratings
1 star 2 stars 3 stars 4 stars 5 stars
comments

Crawling Bass Tab

Linkin Park, Crawling.
 Tabbed by starwarspunk, starwarspunk421@juno.com.
  
Crawling
INTRO/Fill in
G ---------------------------------------
D ----------2---------2--------------------
A ---0---------2----------4------2-----
E ------------------------------------0---
Chorus
G ---------------------------------------
D --------------------------------------------
A --4 -4-4-------0-0-0----------------2----2----2-
E --------------------------0-0-0------------
Verse
G -------------------------------------------
D -------------------------------------------
A ---4--------0-----------------2-----------
E ----------------------0-------------------4
[ Tab from: http://www.guitartabs.cc/tabs/l/linkin_park/crawling_btab_ver_2.html ]
G --------------------------------------
D --------------------------------------
A ---4--------0----------------------2
E -----------------------0-------------


Last Chorus
G -------------------------------------------
D ------2----------------------------------
A ---4-----4-------0------------------2---(2-2-2-2-) 
E ------------ -4--------------0-------

Intro (0:14)
Chorus X2
Verse X2
Fill-in X2
Chorus X2
Verse X2
Fill-in X2
Chorus X1
Last Chorus (without the 2-2-2-2-)
Chorus X2
Last Chorus  (with the 2-2-2-2)

i am pretty sure this is right.  if it's not, sorry, because it sounds right when i play it.   
:: Ultimate Guitar Archive :: 
http://www.ultimate-guitar.com 



Comments